  0
SECTION
  2
HEADER
  9
$ACADVER
  1
AC1014
  9
$ACADMAINTVER
 70
     0
  9
$DWGCODEPAGE
  3
DOS932
  9
$INSBASE
 10
0.0
 20
0.0
 30
0.0
  9
$EXTMIN
 10
0.0
 20
0.0
 30
0.0
  9
$EXTMAX
 10
356400.0
 20
252000.0
 30
0.0
  9
$LIMMIN
 10
0.0
 20
0.0
  9
$LIMMAX
 10
356400.0
 20
252000.0
  9
$ORTHOMODE
 70
     0
  9
$REGENMODE
 70
     1
  9
$FILLMODE
 70
     1
  9
$QTEXTMODE
 70
     0
  9
$MIRRTEXT
 70
     1
  9
$DRAGMODE
 70
     2
  9
$LTSCALE
 40
6000.0
  9
$OSMODE
 70
     0
  9
$ATTMODE
 70
     1
  9
$TEXTSIZE
 40
0.2
  9
$TRACEWID
 40
0.05
  9
$TEXTSTYLE
  7
STANDARD
  9
$CLAYER
  8
0
  9
$CELTYPE
  6
CONTINUOUS
  9
$CECOLOR
 62
   256
  9
$CELTSCALE
 40
1.0
  9
$DELOBJ
 70
     1
  9
$DISPSILH
 70
     0
  9
$DIMSCALE
 40
600.0
  9
$DIMASZ
 40
0.18
  9
$DIMEXO
 40
0.0625
  9
$DIMDLI
 40
0.38
  9
$DIMRND
 40
0.0
  9
$DIMDLE
 40
0.0
  9
$DIMEXE
 40
0.18
  9
$DIMTP
 40
0.0
  9
$DIMTM
 40
0.0
  9
$DIMTXT
 40
0.18
  9
$DIMCEN
 40
0.09
  9
$DIMTSZ
 40
0.0
  9
$DIMTOL
 70
     0
  9
$DIMLIM
 70
     0
  9
$DIMTIH
 70
     1
  9
$DIMTOH
 70
     1
  9
$DIMSE1
 70
     0
  9
$DIMSE2
 70
     0
  9
$DIMTAD
 70
     0
  9
$DIMZIN
 70
     0
  9
$DIMBLK
  1

  9
$DIMASO
 70
     1
  9
$DIMSHO
 70
     1
  9
$DIMPOST
  1

  9
$DIMAPOST
  1

  9
$DIMALT
 70
     0
  9
$DIMALTD
 70
     2
  9
$DIMALTF
 40
25.4
  9
$DIMLFAC
 40
1.0
  9
$DIMTOFL
 70
     0
  9
$DIMTVP
 40
0.0
  9
$DIMTIX
 70
     0
  9
$DIMSOXD
 70
     0
  9
$DIMSAH
 70
     0
  9
$DIMBLK1
  1

  9
$DIMBLK2
  1

  9
$DIMSTYLE
  2
STANDARD
  9
$DIMCLRD
 70
     0
  9
$DIMCLRE
 70
     0
  9
$DIMCLRT
 70
     0
  9
$DIMTFAC
 40
1.0
  9
$DIMGAP
 40
0.09
  9
$DIMJUST
 70
     0
  9
$DIMSD1
 70
     0
  9
$DIMSD2
 70
     0
  9
$DIMTOLJ
 70
     1
  9
$DIMTZIN
 70
     0
  9
$DIMALTZ
 70
     0
  9
$DIMALTTZ
 70
     0
  9
$DIMFIT
 70
     3
  9
$DIMUPT
 70
     0
  9
$DIMUNIT
 70
     2
  9
$DIMDEC
 70
     4
  9
$DIMTDEC
 70
     4
  9
$DIMALTU
 70
     2
  9
$DIMALTTD
 70
     2
  9
$DIMTXSTY
  7
STANDARD
  9
$DIMAUNIT
 70
     0
  9
$LUNITS
 70
     2
  9
$LUPREC
 70
     4
  9
$SKETCHINC
 40
0.1
  9
$FILLETRAD
 40
0.0
  9
$AUNITS
 70
     0
  9
$AUPREC
 70
     0
  9
$MENU
  1
acad
  9
$ELEVATION
 40
0.0
  9
$PELEVATION
 40
0.0
  9
$THICKNESS
 40
0.0
  9
$LIMCHECK
 70
     0
  9
$BLIPMODE
 70
     1
  9
$CHAMFERA
 40
0.0
  9
$CHAMFERB
 40
0.0
  9
$CHAMFERC
 40
0.0
  9
$CHAMFERD
 40
0.0
  9
$SKPOLY
 70
     0
  9
$TDCREATE
 40
2455367.618553241
  9
$TDUPDATE
 40
2455367.618553241
  9
$TDINDWG
 40
0.0000000000
  9
$TDUSRTIMER
 40
0.0000000000
  9
$USRTIMER
 70
     1
  9
$ANGBASE
 50
0.0
  9
$ANGDIR
 70
     0
  9
$PDMODE
 70
     0
  9
$PDSIZE
 40
0.0
  9
$PLINEWID
 40
0.0
  9
$COORDS
 70
     0
  9
$SPLFRAME
 70
     0
  9
$SPLINETYPE
 70
     6
  9
$SPLINESEGS
 70
     8
  9
$ATTDIA
 70
     0
  9
$ATTREQ
 70
     1
  9
$HANDLING
 70
     1
  9
$HANDSEED
  5
425
  9
$SURFTAB1
 70
     6
  9
$SURFTAB2
 70
     6
  9
$SURFTYPE
 70
     6
  9
$SURFU
 70
     6
  9
$SURFV
 70
     6
  9
$UCSNAME
  2

  9
$UCSORG
 10
0.0
 20
0.0
 30
0.0
  9
$UCSXDIR
 10
1.0
 20
0.0
 30
0.0
  9
$UCSYDIR
 10
0.0
 20
1.0
 30
0.0
  9
$PUCSNAME
  2

  9
$PUCSORG
 10
0.0
 20
0.0
 30
0.0
  9
$PUCSXDIR
 10
1.0
 20
0.0
 30
0.0
  9
$PUCSYDIR
 10
0.0
 20
1.0
 30
0.0
  9
$USERI1
 70
     0
  9
$USERI2
 70
     0
  9
$USERI3
 70
     0
  9
$USERI4
 70
     0
  9
$USERI5
 70
     0
  9
$USERR1
 40
0.0
  9
$USERR2
 40
0.0
  9
$USERR3
 40
0.0
  9
$USERR4
 40
0.0
  9
$USERR5
 40
0.0
  9
$WORLDVIEW
 70
     1
  9
$SHADEDGE
 70
     3
  9
$SHADEDIF
 70
    70
  9
$TILEMODE
 70
     1
  9
$MAXACTVP
 70
    16
  9
$PINSBASE
 10
0.0
 20
0.0
 30
0.0
  9
$PLIMCHECK
 70
     0
  9
$PEXTMIN
 10
1.000000E+20
 20
1.000000E+20
 30
1.000000E+20
  9
$PEXTMAX
 10
-1.000000E+20
 20
-1.000000E+20
 30
-1.000000E+20
  9
$PLIMMIN
 10
0.0
 20
0.0
  9
$PLIMMAX
 10
12.0
 20
9.0
  9
$UNITMODE
 70
     0
  9
$VISRETAIN
 70
     0
  9
$PLINEGEN
 70
     1
  9
$PSLTSCALE
 70
     0
  9
$TREEDEPTH
 70
  3020
  9
$PICKSTYLE
 70
     1
  9
$CMLSTYLE
  2
STANDARD
  9
$CMLJUST
 70
     0
  9
$CMLSCALE
 40
1.0
  9
$PROXYGRAPHICS
 70
     0
  9
$MEASUREMENT
 70
     0
  0
ENDSEC
  0
SECTION
  2
CLASSES
  0
CLASS
  1
LWPOLYLINE
  2
AcDbPolyline
  3
"AutoCAD"
 90
        0
280
     0
281
     1
  0
CLASS
  1
IMAGE
  2
AcDbRasterImage
  3
ISM
 90
      127
280
     0
281
     1
  0
CLASS
  1
OLE2FRAME
  2
AcDbOle2Frame
  3
""
 90
        0
280
     0
281
     1
  0
CLASS
  1
HATCH
  2
AcDbHatch
  3
"ACAD_SEDONA"
 90
        0
280
     0
281
     1
  0
CLASS
  1
DICTIONARYVAR
  2
AcDbDictionaryVar
  3
"AutoCAD"
 90
        0
280
     0
281
     0
  0
CLASS
  1
RASTERVARIABLES
  2
AcDbRasterVariables
  3
ISM
 90
        0
280
     0
281
     0
  0
CLASS
  1
IMAGEDEF
  2
AcDbRasterImageDef
  3
ISM
 90
        0
280
     0
281
     0
  0
CLASS
  1
IMAGEDEF_REACTOR
  2
AcDbRasterImageDefReactor
  3
ISM
 90
        1
280
     0
281
     0
  0
CLASS
  1
IDBUFFER
  2
AcDbIdBuffer
  3
"Acad"
 90
        0
280
     0
281
     0
  0
CLASS
  1
SPATIAL_FILTER
  2
AcDbSpatialFilter
  3
"Acad"
 90
        0
280
     0
281
     0
  0
CLASS
  1
XRECORD
  2
AcDbXrecord
  3
"<Built In>"
 90
        0
280
     0
281
     0
  0
CLASS
  1
SORTENTSTABLE
  2
AcDbSortentsTable
  3
"AutoCAD"
 90
        0
280
     0
281
     0
  0
CLASS
  1
LAYER_INDEX
  2
AcDbLayerIndex
  3
"Acad"
 90
        0
280
     0
281
     0
  0
CLASS
  1
SPATIAL_INDEX
  2
AcDbSpatialIndex
  3
"Acad"
 90
        0
280
     0
281
     0
  0
CLASS
  1
OBJECT_PTR
  2
CAseDLPNTableRecord
  3
"ASE-LPNTableRecord"
 90
        1
280
     0
281
     0
  0
ENDSEC
  0
SECTION
  2
TABLES
  0
TABLE
  2
VPORT
  5
7
100
AcDbSymbolTable
 70
     1
  0
VPORT
  5
15
100
AcDbSymbolTableRecord
100
AcDbViewportTableRecord
  2
*ACTIVE
 70
     0
 10
0.0
 20
0.0
 11
1.0
 21
1.0
 12
118800.0
 22
126000.0
 13
0.0
 23
0.0
 14
1.0
 24
1.0
 15
0.0
 25
0.0
 16
0.0
 26
0.0
 36
1.0
 17
0.0
 27
0.0
 37
0.0
 40
252000.0
 41
0.688564
 42
50.0
 43
0.0
 44
0.0
 50
0.0
 51
0.0
 71
     0
 72
   100
 73
     1
 74
     1
 75
     0
 76
     0
 77
     0
 78
     0
  0
ENDTAB
  0
TABLE
  2
LTYPE
  5
4
100
AcDbSymbolTable
 70
     4
  0
LTYPE
  5
11
100
AcDbSymbolTableRecord
100
AcDbLinetypeTableRecord
  2
BYBLOCK
 70
     0
  3

 72
    65
 73
     0
 40
0.0
  0
LTYPE
  5
12
100
AcDbSymbolTableRecord
100
AcDbLinetypeTableRecord
  2
BYLAYER
 70
     0
  3

 72
    65
 73
     0
 40
0.0
  0
LTYPE
  5
13
100
AcDbSymbolTableRecord
100
AcDbLinetypeTableRecord
  2
CONTINUOUS
 70
     0
  3
Solid line
 72
    65
 73
     0
 40
0.0
  0
LTYPE
  5
2C9
100
AcDbSymbolTableRecord
100
AcDbLinetypeTableRecord
  2
DASHDOT
 70
    64
  3
__ . __ . __ . __ . __ . __ . __ . __
 72
    65
 73
     4
 40
1.0
 49
0.5
 74
     0
 49
-0.25
 74
     0
 49
0.0
 74
     0
 49
-0.25
 74
     0
  0
ENDTAB
  0
TABLE
  2
LAYER
  5
2
100
AcDbSymbolTable
 70
     2
  0
LAYER
  5
14
100
AcDbSymbolTableRecord
100
AcDbLayerTableRecord
  2
0
 70
     0
 62
     7
  6
CONTINUOUS
  0
LAYER
  5
1F
100
AcDbSymbolTableRecord
100
AcDbLayerTableRecord
  2
2-1
 70
     0
 62
     7
  6
CONTINUOUS
  0
ENDTAB
  0
TABLE
  2
STYLE
  5
3
100
AcDbSymbolTable
 70
     2
  0
STYLE
  5
17
100
AcDbSymbolTableRecord
100
AcDbTextStyleTableRecord
  2
STANDARD
 70
    64
 40
0.0
 41
1.0
 50
0.0
 71
     0
 42
0.0
  3
txt
  4
BIGFONT
  0
STYLE
  5
1E
100
AcDbSymbolTableRecord
100
AcDbTextStyleTableRecord
  2
TATEGAKI
 70
    68
 40
0.0
 41
1.0
 50
0.0
 71
     0
 42
0.0
  3
txt
  4
BIGFONT
  0
ENDTAB
  0
TABLE
  2
VIEW
  5
5
100
AcDbSymbolTable
 70
     0
  0
ENDTAB
  0
TABLE
  2
UCS
  5
6
100
AcDbSymbolTable
 70
     0
  0
ENDTAB
  0
TABLE
  2
APPID
  5
8
100
AcDbSymbolTable
 70
     1
  0
APPID
  5
16
100
AcDbSymbolTableRecord
100
AcDbRegAppTableRecord
  2
ACAD
 70
     0
  0
ENDTAB
  0
TABLE
  2
DIMSTYLE
  5
9
100
AcDbSymbolTable
 70
     1
  0
DIMSTYLE
105
18
100
AcDbSymbolTableRecord
100
AcDbDimStyleTableRecord
  2
STANDARD
 70
     0
  3

  4

  5

  6

  7

 40
1.0
 41
0.18
 42
0.0625
 43
0.38
 44
0.18
 45
0.0
 46
0.0
 47
0.0
 48
0.0
140
0.18
141
0.09
142
0.0
143
25.4
144
1.0
145
0.0
146
1.0
147
0.09
 71
     0
 72
     0
 73
     1
 74
     1
 75
     0
 76
     0
 77
     0
 78
     0
170
     0
171
     2
172
     0
173
     0
174
     0
175
     0
176
     0
177
     0
178
     0
270
     2
271
     4
272
     4
273
     2
274
     2
340
17
275
     0
280
     0
281
     0
282
     0
283
     1
284
     0
285
     0
286
     0
287
     0
288
     0
  0
ENDTAB
  0
TABLE
  2
BLOCK_RECORD
  5
1
100
AcDbSymbolTable
 70
     7
  0
BLOCK_RECORD
  5
A
100
AcDbSymbolTableRecord
100
AcDbBlockTableRecord
  2
*MODEL_SPACE
  0
BLOCK_RECORD
  5
B
100
AcDbSymbolTableRecord
100
AcDbBlockTableRecord
  2
*PAPER_SPACE
  0
BLOCK_RECORD
  5
296
100
AcDbSymbolTableRecord
100
AcDbBlockTableRecord
  2
INSERT1
  0
BLOCK_RECORD
  5
2A7
100
AcDbSymbolTableRecord
100
AcDbBlockTableRecord
  2
INSERT2
  0
BLOCK_RECORD
  5
2B8
100
AcDbSymbolTableRecord
100
AcDbBlockTableRecord
  2
INSERT3
  0
BLOCK_RECORD
  5
335
102
{ACAD_XDICTIONARY
360
5F5F202E205F5F20
102
}
100
AcDbSymbolTableRecord
100
AcDbBlockTableRecord
  2
INSERT4
  0
BLOCK_RECORD
  5
367
102
{ACAD_XDICTIONARY
360
5F5F202E205F5F20
102
}
100
AcDbSymbolTableRecord
100
AcDbBlockTableRecord
  2
INSERT5
  0
BLOCK_RECORD
  5
37E
102
{ACAD_XDICTIONARY
360
5F5F202E205F5F20
102
}
100
AcDbSymbolTableRecord
100
AcDbBlockTableRecord
  2
INSERT6
  0
BLOCK_RECORD
  5
39D
102
{ACAD_XDICTIONARY
360
5F5F202E205F5F20
102
}
100
AcDbSymbolTableRecord
100
AcDbBlockTableRecord
  2
INSERT7
  0
ENDTAB
  0
ENDSEC
  0
SECTION
  2
BLOCKS
  0
BLOCK
  5
D
100
AcDbEntity
  8
0
100
AcDbBlockBegin
  2
*MODEL_SPACE
 70
     0
 10
0.0
 20
0.0
 30
0.0
  3
*MODEL_SPACE
  1

  0
ENDBLK
  5
E
100
AcDbEntity
  8
0
100
AcDbBlockEnd
  0
BLOCK
  5
F
100
AcDbEntity
 67
     1
  8
0
100
AcDbBlockBegin
  2
*PAPER_SPACE
 70
     0
 10
0.0
 20
0.0
 30
0.0
  3
*PAPER_SPACE
  1

  0
ENDBLK
  5
10
100
AcDbEntity
 67
     1
  8
0
100
AcDbBlockEnd
  0
BLOCK
  5
297
100
AcDbEntity
  8
0
100
AcDbBlockBegin
  2
INSERT1
 70
    64
 10
0.0
 20
0.0
 30
0.0
  3
INSERT1
  1

  0
TEXT
  5
299
100
AcDbEntity
  8
2-1
  6
CONTINUOUS
 62
     8
100
AcDbText
 10
171827.31612
 20
230951.225017
 30
0.0
 40
1800.0
  1
4,500
 50
3.43363
 41
1.433333
 72
     1
 11
175046.526748
 21
231144.377634
 31
0.0
100
AcDbText
  0
LINE
  5
29A
100
AcDbEntity
  8
2-1
  6
CONTINUOUS
 62
     8
100
AcDbLine
 10
178250.853243
 20
215306.375434
 30
0.0
 11
177303.268264
 21
231099.458409
 31
0.0
  0
LINE
  5
29B
100
AcDbEntity
  8
2-1
  6
CONTINUOUS
 62
     8
100
AcDbLine
 10
173758.931439
 20
215036.860126
 30
0.0
 11
172811.34646
 21
230829.9431
 31
0.0
  0
CIRCLE
  5
29C
100
AcDbEntity
  8
2-1
  6
CONTINUOUS
 62
     8
100
AcDbCircle
 10
172811.34646
 20
230829.9431
 30
0.0
 40
300.0
  0
CIRCLE
  5
29D
100
AcDbEntity
  8
2-1
  6
CONTINUOUS
 62
     8
100
AcDbCircle
 10
172811.34646
 20
230829.9431
 30
0.0
 40
150.0
  0
CIRCLE
  5
29E
100
AcDbEntity
  8
2-1
  6
CONTINUOUS
 62
     8
100
AcDbCircle
 10
177303.268264
 20
231099.458409
 30
0.0
 40
300.0
  0
CIRCLE
  5
29F
100
AcDbEntity
  8
2-1
  6
CONTINUOUS
 62
     8
100
AcDbCircle
 10
177303.268264
 20
231099.458409
 30
0.0
 40
150.0
  0
LINE
  5
2A0
100
AcDbEntity
  8
2-1
  6
CONTINUOUS
 62
     8
100
AcDbLine
 10
172811.34646
 20
230829.9431
 30
0.0
 11
177303.268264
 21
231099.458409
 31
0.0
  0
TEXT
  5
2A1
100
AcDbEntity
  8
2-1
  6
CONTINUOUS
 62
     8
100
AcDbText
 10
184409.688189
 20
231706.167305
 30
0.0
 40
1800.0
  1
22,000
 50
3.43363
 41
1.433333
 72
     1
 11
188272.740942
 21
231937.950445
 31
0.0
100
AcDbText
  0
LINE
  5
2A2
100
AcDbEntity
  8
2-1
  6
CONTINUOUS
 62
     8
100
AcDbLine
 10
200211.359843
 20
216624.00583
 30
0.0
 11
199263.774865
 21
232417.088805
 31
0.0
  0
CIRCLE
  5
2A3
100
AcDbEntity
  8
2-1
  6
CONTINUOUS
 62
     8
100
AcDbCircle
 10
199263.774865
 20
232417.088805
 30
0.0
 40
300.0
  0
CIRCLE
  5
2A4
100
AcDbEntity
  8
2-1
  6
CONTINUOUS
 62
     8
100
AcDbCircle
 10
199263.774865
 20
232417.088805
 30
0.0
 40
150.0
  0
LINE
  5
2A5
100
AcDbEntity
  8
2-1
  6
CONTINUOUS
 62
     8
100
AcDbLine
 10
177303.268264
 20
231099.458409
 30
0.0
 11
199263.774865
 21
232417.088805
 31
0.0
  0
ENDBLK
  5
2A6
100
AcDbEntity
  8
0
100
AcDbBlockEnd
  0
BLOCK
  5
2A8
100
AcDbEntity
  8
0
100
AcDbBlockBegin
  2
INSERT2
 70
    64
 10
0.0
 20
0.0
 30
0.0
  3
INSERT2
  1

  0
TEXT
  5
2AA
100
AcDbEntity
  8
2-1
  6
CONTINUOUS
 62
     8
100
AcDbText
 10
215825.119882
 20
193585.721376
 30
0.0
 40
1800.0
  1
600
 50
93.43363
 41
1.433333
 72
     1
 11
215709.228312
 21
195517.247753
 31
0.0
100
AcDbText
  0
LINE
  5
2AB
100
AcDbEntity
  8
2-1
  6
CONTINUOUS
 62
     8
100
AcDbLine
 10
202639.438491
 20
196968.872828
 30
0.0
 11
215755.237614
 21
197755.820775
 31
0.0
  0
LINE
  5
2AC
100
AcDbEntity
  8
2-1
  6
CONTINUOUS
 62
     8
100
AcDbLine
 10
202675.373865
 20
196369.949913
 30
0.0
 11
215791.172989
 21
197156.89786
 31
0.0
  0
CIRCLE
  5
2AD
100
AcDbEntity
  8
2-1
  6
CONTINUOUS
 62
     8
100
AcDbCircle
 10
215791.172989
 20
197156.89786
 30
0.0
 40
300.0
  0
CIRCLE
  5
2AE
100
AcDbEntity
  8
2-1
  6
CONTINUOUS
 62
     8
100
AcDbCircle
 10
215791.172989
 20
197156.89786
 30
0.0
 40
150.0
  0
CIRCLE
  5
2AF
100
AcDbEntity
  8
2-1
  6
CONTINUOUS
 62
     8
100
AcDbCircle
 10
215755.237614
 20
197755.820775
 30
0.0
 40
300.0
  0
CIRCLE
  5
2B0
100
AcDbEntity
  8
2-1
  6
CONTINUOUS
 62
     8
100
AcDbCircle
 10
215755.237614
 20
197755.820775
 30
0.0
 40
150.0
  0
LINE
  5
2B1
100
AcDbEntity
  8
2-1
  6
CONTINUOUS
 62
     8
100
AcDbLine
 10
215791.172989
 20
197156.89786
 30
0.0
 11
215755.237614
 21
197755.820775
 31
0.0
  0
TEXT
  5
2B2
100
AcDbEntity
  8
2-1
  6
CONTINUOUS
 62
     8
100
AcDbText
 10
215190.836248
 20
204157.115209
 30
0.0
 40
1800.0
  1
19,000
 50
93.43363
 41
1.433333
 72
     1
 11
214959.053108
 21
208020.167963
 31
0.0
100
AcDbText
  0
LINE
  5
2B3
100
AcDbEntity
  8
2-1
  6
CONTINUOUS
 62
     8
100
AcDbLine
 10
201501.484967
 20
215934.764891
 30
0.0
 11
214617.28409
 21
216721.712839
 31
0.0
  0
CIRCLE
  5
2B4
100
AcDbEntity
  8
2-1
  6
CONTINUOUS
 62
     8
100
AcDbCircle
 10
214617.28409
 20
216721.712839
 30
0.0
 40
300.0
  0
CIRCLE
  5
2B5
100
AcDbEntity
  8
2-1
  6
CONTINUOUS
 62
     8
100
AcDbCircle
 10
214617.28409
 20
216721.712839
 30
0.0
 40
150.0
  0
LINE
  5
2B6
100
AcDbEntity
  8
2-1
  6
CONTINUOUS
 62
     8
100
AcDbLine
 10
215755.237614
 20
197755.820775
 30
0.0
 11
214617.28409
 21
216721.712839
 31
0.0
  0
ENDBLK
  5
2B7
100
AcDbEntity
  8
0
100
AcDbBlockEnd
  0
BLOCK
  5
2B9
100
AcDbEntity
  8
0
100
AcDbBlockBegin
  2
INSERT3
 70
    64
 10
0.0
 20
0.0
 30
0.0
  3
INSERT3
  1

  0
TEXT
  5
2BB
100
AcDbEntity
  8
2-1
  6
CONTINUOUS
 62
     8
100
AcDbText
 10
181690.964787
 20
192548.792994
 30
0.0
 40
1800.0
  1
3300
 50
90.0
 72
     1
 11
181690.964787
 21
194348.792994
 31
0.0
100
AcDbText
  0
LINE
  5
2BC
100
AcDbEntity
  8
2-1
  6
CONTINUOUS
 62
     8
100
AcDbLine
 10
183505.322
 20
192701.755
 30
0.0
 11
181870.964789
 21
192701.755
 31
0.0
  0
LINE
  5
2BD
100
AcDbEntity
  8
2-1
  6
CONTINUOUS
 62
     8
100
AcDbLine
 10
186512.746
 20
195995.83099
 30
0.0
 11
181870.964789
 21
195995.83099
 31
0.0
  0
CIRCLE
  5
2BE
100
AcDbEntity
  8
2-1
  6
CONTINUOUS
 62
     8
100
AcDbCircle
 10
181870.964789
 20
195995.83099
 30
0.0
 40
300.0
  0
CIRCLE
  5
2BF
100
AcDbEntity
  8
2-1
  6
CONTINUOUS
 62
     8
100
AcDbCircle
 10
181870.964789
 20
195995.83099
 30
0.0
 40
150.0
  0
CIRCLE
  5
2C0
100
AcDbEntity
  8
2-1
  6
CONTINUOUS
 62
     8
100
AcDbCircle
 10
181870.964789
 20
192701.755
 30
0.0
 40
300.0
  0
CIRCLE
  5
2C1
100
AcDbEntity
  8
2-1
  6
CONTINUOUS
 62
     8
100
AcDbCircle
 10
181870.964789
 20
192701.755
 30
0.0
 40
150.0
  0
LINE
  5
2C2
100
AcDbEntity
  8
2-1
  6
CONTINUOUS
 62
     8
100
AcDbLine
 10
181870.964789
 20
195995.83099
 30
0.0
 11
181870.964789
 21
192701.755
 31
0.0
  0
ENDBLK
  5
2C3
100
AcDbEntity
  8
0
100
AcDbBlockEnd
  0
BLOCK
  5
336
100
AcDbEntity
  8
0
100
AcDbBlockBegin
  2
INSERT4
 70
    64
 10
0.0
 20
0.0
 30
0.0
  3
INSERT4
  1

  0
LINE
  5
338
100
AcDbEntity
  8
2-1
  6
CONTINUOUS
 62
     1
100
AcDbLine
 10
201259.590986
 20
196194.84109
 30
0.0
 11
201734.216661
 21
196669.466764
 31
0.0
  0
LINE
  5
339
100
AcDbEntity
  8
2-1
  6
CONTINUOUS
 62
     1
100
AcDbLine
 10
200056.004976
 20
196122.625929
 30
0.0
 11
201439.308001
 21
197505.928954
 31
0.0
  0
LINE
  5
33A
100
AcDbEntity
  8
2-1
  6
CONTINUOUS
 62
     1
100
AcDbLine
 10
198852.418965
 20
196050.410768
 30
0.0
 11
201375.880715
 21
198573.872518
 31
0.0
  0
LINE
  5
33B
100
AcDbEntity
  8
2-1
  6
CONTINUOUS
 62
     1
100
AcDbLine
 10
197648.832955
 20
195978.195608
 30
0.0
 11
201312.453429
 21
199641.816082
 31
0.0
  0
LINE
  5
33C
100
AcDbEntity
  8
2-1
  6
CONTINUOUS
 62
     1
100
AcDbLine
 10
196445.246944
 20
195905.980447
 30
0.0
 11
201249.026143
 21
200709.759646
 31
0.0
  0
LINE
  5
33D
100
AcDbEntity
  8
2-1
  6
CONTINUOUS
 62
     1
100
AcDbLine
 10
195241.660934
 20
195833.765286
 30
0.0
 11
201185.598857
 21
201777.70321
 31
0.0
  0
LINE
  5
33E
100
AcDbEntity
  8
2-1
  6
CONTINUOUS
 62
     1
100
AcDbLine
 10
194578.387492
 20
196301.862694
 30
0.0
 11
201122.171571
 21
202845.646774
 31
0.0
  0
LINE
  5
33F
100
AcDbEntity
  8
2-1
  6
CONTINUOUS
 62
     1
100
AcDbLine
 10
193479.263404
 20
196334.109456
 30
0.0
 11
201058.744285
 21
203913.590338
 31
0.0
  0
LINE
  5
340
100
AcDbEntity
  8
2-1
  6
CONTINUOUS
 62
     1
100
AcDbLine
 10
192275.677393
 20
196261.894296
 30
0.0
 11
201221.897786
 21
205208.114688
 31
0.0
  0
LINE
  5
341
100
AcDbEntity
  8
2-1
  6
CONTINUOUS
 62
     1
100
AcDbLine
 10
191072.091383
 20
196189.679135
 30
0.0
 11
200931.035651
 21
206048.623403
 31
0.0
  0
LINE
  5
342
100
AcDbEntity
  8
2-1
  6
CONTINUOUS
 62
     1
100
AcDbLine
 10
189868.505372
 20
196117.463974
 30
0.0
 11
200866.995791
 21
207115.954394
 31
0.0
  0
LINE
  5
343
100
AcDbEntity
  8
2-1
  6
CONTINUOUS
 62
     1
100
AcDbLine
 10
186452.796398
 20
192701.755
 30
0.0
 11
186690.60358
 21
192939.562183
 31
0.0
  0
LINE
  5
344
100
AcDbEntity
  8
2-1
  6
CONTINUOUS
 62
     1
100
AcDbLine
 10
188664.919361
 20
196045.248814
 30
0.0
 11
200802.955932
 21
208183.285384
 31
0.0
  0
LINE
  5
345
100
AcDbEntity
  8
2-1
  6
CONTINUOUS
 62
     1
100
AcDbLine
 10
185321.425548
 20
192701.755
 30
0.0
 11
186626.563721
 21
194006.893173
 31
0.0
  0
LINE
  5
346
100
AcDbEntity
  8
2-1
  6
CONTINUOUS
 62
     1
100
AcDbLine
 10
187461.333351
 20
195973.033653
 30
0.0
 11
200738.916072
 21
209250.616375
 31
0.0
  0
LINE
  5
347
100
AcDbEntity
  8
2-1
  6
CONTINUOUS
 62
     1
100
AcDbLine
 10
184511.672455
 20
193023.372757
 30
0.0
 11
186562.523861
 21
195074.224164
 31
0.0
  0
LINE
  5
348
100
AcDbEntity
  8
2-1
  6
CONTINUOUS
 62
     1
100
AcDbLine
 10
184447.632596
 20
194090.703748
 30
0.0
 11
200901.698488
 21
210544.769641
 31
0.0
  0
LINE
  5
349
100
AcDbEntity
  8
2-1
  6
CONTINUOUS
 62
     1
100
AcDbLine
 10
184383.592736
 20
195158.034738
 30
0.0
 11
200610.836354
 21
211385.278356
 31
0.0
  0
LINE
  5
34A
100
AcDbEntity
  8
2-1
  6
CONTINUOUS
 62
     1
100
AcDbLine
 10
184319.552877
 20
196225.365729
 30
0.0
 11
200546.796494
 21
212452.609346
 31
0.0
  0
LINE
  5
34B
100
AcDbEntity
  8
2-1
  6
CONTINUOUS
 62
     1
100
AcDbLine
 10
184255.513017
 20
197292.696719
 30
0.0
 11
200482.756635
 21
213519.940337
 31
0.0
  0
LINE
  5
34C
100
AcDbEntity
  8
2-1
  6
CONTINUOUS
 62
     1
100
AcDbLine
 10
191998.293798
 20
206166.84835
 30
0.0
 11
200227.122978
 21
214395.67753
 31
0.0
  0
LINE
  5
34D
100
AcDbEntity
  8
2-1
  6
CONTINUOUS
 62
     1
100
AcDbLine
 10
184191.473158
 20
198360.02771
 30
0.0
 11
191185.291732
 21
205353.846284
 31
0.0
  0
LINE
  5
34E
100
AcDbEntity
  8
2-1
  6
CONTINUOUS
 62
     1
100
AcDbLine
 10
191957.024751
 20
207256.950152
 30
0.0
 11
199576.37115
 21
214876.296552
 31
0.0
  0
LINE
  5
34F
100
AcDbEntity
  8
2-1
  6
CONTINUOUS
 62
     1
100
AcDbLine
 10
184127.433298
 20
199427.3587
 30
0.0
 11
189981.705722
 21
205281.631123
 31
0.0
  0
LINE
  5
350
100
AcDbEntity
  8
2-1
  6
CONTINUOUS
 62
     1
100
AcDbLine
 10
190817.148137
 20
207248.444388
 30
0.0
 11
198976.7446
 21
215408.040851
 31
0.0
  0
LINE
  5
351
100
AcDbEntity
  8
2-1
  6
CONTINUOUS
 62
     1
100
AcDbLine
 10
183832.0746
 20
200263.370851
 30
0.0
 11
188778.119711
 21
205209.415963
 31
0.0
  0
LINE
  5
352
100
AcDbEntity
  8
2-1
  6
CONTINUOUS
 62
     1
100
AcDbLine
 10
189613.562126
 20
207176.229228
 30
0.0
 11
198262.93782
 21
215825.604922
 31
0.0
  0
LINE
  5
353
100
AcDbEntity
  8
2-1
  6
CONTINUOUS
 62
     1
100
AcDbLine
 10
182628.488589
 20
200191.155691
 30
0.0
 11
187574.533701
 21
205137.200802
 31
0.0
  0
LINE
  5
354
100
AcDbEntity
  8
2-1
  6
CONTINUOUS
 62
     1
100
AcDbLine
 10
188409.976116
 20
207104.014067
 30
0.0
 11
197059.35181
 21
215753.389761
 31
0.0
  0
LINE
  5
355
100
AcDbEntity
  8
2-1
  6
CONTINUOUS
 62
     1
100
AcDbLine
 10
181424.902579
 20
200118.94053
 30
0.0
 11
186593.954531
 21
205287.992482
 31
0.0
  0
LINE
  5
356
100
AcDbEntity
  8
2-1
  6
CONTINUOUS
 62
     1
100
AcDbLine
 10
187206.390105
 20
207031.798906
 30
0.0
 11
195855.765799
 21
215681.1746
 31
0.0
  0
LINE
  5
357
100
AcDbEntity
  8
2-1
  6
CONTINUOUS
 62
     1
100
AcDbLine
 10
180221.316568
 20
200046.725369
 30
0.0
 11
186529.914672
 21
206355.323473
 31
0.0
  0
LINE
  5
358
100
AcDbEntity
  8
2-1
  6
CONTINUOUS
 62
     1
100
AcDbLine
 10
179017.730558
 20
199974.510209
 30
0.0
 11
194652.179789
 21
215608.95944
 31
0.0
  0
LINE
  5
359
100
AcDbEntity
  8
2-1
  6
CONTINUOUS
 62
     1
100
AcDbLine
 10
179017.730071
 20
201105.880572
 30
0.0
 11
193448.593778
 21
215536.744279
 31
0.0
  0
LINE
  5
35A
100
AcDbEntity
  8
2-1
  6
CONTINUOUS
 62
     1
100
AcDbLine
 10
178953.690212
 20
202173.211563
 30
0.0
 11
192245.007768
 21
215464.529119
 31
0.0
  0
LINE
  5
35B
100
AcDbEntity
  8
2-1
  6
CONTINUOUS
 62
     1
100
AcDbLine
 10
178865.308433
 20
203216.200634
 30
0.0
 11
191041.421757
 21
215392.313958
 31
0.0
  0
LINE
  5
35C
100
AcDbEntity
  8
2-1
  6
CONTINUOUS
 62
     1
100
AcDbLine
 10
178825.610493
 20
204307.873544
 30
0.0
 11
189837.835747
 21
215320.098797
 31
0.0
  0
LINE
  5
35D
100
AcDbEntity
  8
2-1
  6
CONTINUOUS
 62
     1
100
AcDbLine
 10
178761.570634
 20
205375.204534
 30
0.0
 11
188634.249736
 21
215247.883637
 31
0.0
  0
LINE
  5
35E
100
AcDbEntity
  8
2-1
  6
CONTINUOUS
 62
     1
100
AcDbLine
 10
178697.530774
 20
206442.535525
 30
0.0
 11
187430.663726
 21
215175.668476
 31
0.0
  0
LINE
  5
35F
100
AcDbEntity
  8
2-1
  6
CONTINUOUS
 62
     1
100
AcDbLine
 10
178633.490915
 20
207509.866515
 30
0.0
 11
186227.077715
 21
215103.453315
 31
0.0
  0
LINE
  5
360
100
AcDbEntity
  8
2-1
  6
CONTINUOUS
 62
     1
100
AcDbLine
 10
178569.451055
 20
208577.197506
 30
0.0
 11
185023.491704
 21
215031.238155
 31
0.0
  0
LINE
  5
361
100
AcDbEntity
  8
2-1
  6
CONTINUOUS
 62
     1
100
AcDbLine
 10
178505.411196
 20
209644.528496
 30
0.0
 11
183819.905694
 21
214959.022994
 31
0.0
  0
LINE
  5
362
100
AcDbEntity
  8
2-1
  6
CONTINUOUS
 62
     1
100
AcDbLine
 10
178441.371337
 20
210711.859487
 30
0.0
 11
182616.319683
 21
214886.807834
 31
0.0
  0
LINE
  5
363
100
AcDbEntity
  8
2-1
  6
CONTINUOUS
 62
     1
100
AcDbLine
 10
178377.331477
 20
211779.190477
 30
0.0
 11
181412.733673
 21
214814.592673
 31
0.0
  0
LINE
  5
364
100
AcDbEntity
  8
2-1
  6
CONTINUOUS
 62
     1
100
AcDbLine
 10
178313.291618
 20
212846.521468
 30
0.0
 11
180209.147662
 21
214742.377512
 31
0.0
  0
LINE
  5
365
100
AcDbEntity
  8
2-1
  6
CONTINUOUS
 62
     1
100
AcDbLine
 10
178249.251758
 20
213913.852458
 30
0.0
 11
179005.561652
 21
214670.162352
 31
0.0
  0
ENDBLK
  5
366
100
AcDbEntity
  8
0
100
AcDbBlockEnd
  0
BLOCK
  5
368
100
AcDbEntity
  8
0
100
AcDbBlockBegin
  2
INSERT5
 70
    64
 10
0.0
 20
0.0
 30
0.0
  3
INSERT5
  1

  0
LINE
  5
36A
100
AcDbEntity
  8
2-1
  6
CONTINUOUS
 62
     1
100
AcDbLine
 10
200923.359146
 20
190201.755
 30
0.0
 11
201014.324
 21
190292.719854
 31
0.0
  0
LINE
  5
36B
100
AcDbEntity
  8
2-1
  6
CONTINUOUS
 62
     1
100
AcDbLine
 10
200014.324
 20
190424.090704
 30
0.0
 11
201014.324
 21
191424.090704
 31
0.0
  0
LINE
  5
36C
100
AcDbEntity
  8
2-1
  6
CONTINUOUS
 62
     1
100
AcDbLine
 10
200014.324
 20
191555.461554
 30
0.0
 11
201014.324
 21
192555.461554
 31
0.0
  0
LINE
  5
36D
100
AcDbEntity
  8
2-1
  6
CONTINUOUS
 62
     1
100
AcDbLine
 10
200014.324
 20
192686.832404
 30
0.0
 11
200029.246596
 21
192701.755
 31
0.0
  0
ENDBLK
  5
36E
100
AcDbEntity
  8
0
100
AcDbBlockEnd
  0
BLOCK
  5
37F
100
AcDbEntity
  8
0
100
AcDbBlockBegin
  2
INSERT6
 70
    64
 10
0.0
 20
0.0
 30
0.0
  3
INSERT6
  1

  0
TEXT
  5
381
100
AcDbEntity
  8
2-1
  6
CONTINUOUS
 62
     8
100
AcDbText
 10
137644.48
 20
32308.511038
 30
0.0
 40
2700.0
  1
配　置　図　　　１：６００　　
 41
0.888889
100
AcDbText
  0
LINE
  5
382
100
AcDbEntity
  8
2-1
  6
CONTINUOUS
 62
     8
100
AcDbLine
 10
132449.28
 20
31574.657
 30
0.0
 11
174449.28
 21
31574.657
 31
0.0
  0
LINE
  5
383
100
AcDbEntity
  8
2-1
  6
CONTINUOUS
 62
     8
100
AcDbLine
 10
174449.28
 20
35774.657
 30
0.0
 11
174449.28
 21
31574.657
 31
0.0
  0
LINE
  5
384
100
AcDbEntity
  8
2-1
  6
CONTINUOUS
 62
     8
100
AcDbLine
 10
132449.28
 20
35774.657
 30
0.0
 11
174449.28
 21
35774.657
 31
0.0
  0
LINE
  5
385
100
AcDbEntity
  8
2-1
  6
CONTINUOUS
 62
     8
100
AcDbLine
 10
132449.28
 20
35774.657
 30
0.0
 11
132449.28
 21
31574.657
 31
0.0
  0
ENDBLK
  5
386
100
AcDbEntity
  8
0
100
AcDbBlockEnd
  0
BLOCK
  5
39E
100
AcDbEntity
  8
0
100
AcDbBlockBegin
  2
INSERT7
 70
    64
 10
0.0
 20
0.0
 30
0.0
  3
INSERT7
  1

  0
TEXT
  5
3A0
100
AcDbEntity
  8
2-1
  6
CONTINUOUS
 62
     8
100
AcDbText
 10
32724.860198
 20
189811.896911
 30
0.0
 40
1800.0
  1
12,000
 50
320.94152
 41
1.433333
 72
     1
 11
35729.927684
 21
187373.358537
 31
0.0
100
AcDbText
  0
CIRCLE
  5
3A1
100
AcDbEntity
  8
2-1
  6
CONTINUOUS
 62
     8
100
AcDbCircle
 10
30957.487934
 20
191014.267611
 30
0.0
 40
300.0
  0
CIRCLE
  5
3A2
100
AcDbEntity
  8
2-1
  6
CONTINUOUS
 62
     8
100
AcDbCircle
 10
30957.487934
 20
191014.267611
 30
0.0
 40
150.0
  0
CIRCLE
  5
3A3
100
AcDbEntity
  8
2-1
  6
CONTINUOUS
 62
     8
100
AcDbCircle
 10
40275.526658
 20
183452.908318
 30
0.0
 40
300.0
  0
CIRCLE
  5
3A4
100
AcDbEntity
  8
2-1
  6
CONTINUOUS
 62
     8
100
AcDbCircle
 10
40275.526658
 20
183452.908318
 30
0.0
 40
150.0
  0
LINE
  5
3A5
100
AcDbEntity
  8
2-1
  6
CONTINUOUS
 62
     8
100
AcDbLine
 10
30957.487934
 20
191014.267611
 30
0.0
 11
40275.526658
 21
183452.908318
 31
0.0
  0
ENDBLK
  5
3A6
100
AcDbEntity
  8
0
100
AcDbBlockEnd
  0
ENDSEC
  0
SECTION
  2
ENTITIES
  0
VIEWPORT
  5
1D
100
AcDbEntity
 67
     1
  8
0
100
AcDbViewport
 10
178200.0
 20
126000.0
 30
0.0
 40
356400.0
 41
252000.0
 68
     1
 69
     1
1001
ACAD
1000
MVIEW
1002
{
1070
    16
1010
0.0
1020
0.0
1030
0.0
1010
0.0
1020
0.0
1030
1.0
1040
0.0
1040
9.311892
1040
4.5
1040
3.259162
1040
50.0
1040
0.0
1040
0.0
1070
     0
1070
   100
1070
     1
1070
     1
1070
     0
1070
     0
1070
     0
1070
     0
1040
0.0
1040
0.0
1040
0.0
1040
1.0
1040
1.0
1040
0.0
1040
0.0
1070
     0
1002
{
1002
}
1002
}
  0
TEXT
  5
20
100
AcDbEntity
  8
2-1
  6
CONTINUOUS
 62
     8
100
AcDbText
 10
332836.951
 20
15443.495
 30
0.0
 40
3000.0
  1
Ａ－
100
AcDbText
  0
TEXT
  5
21
100
AcDbEntity
  8
2-1
  6
CONTINUOUS
 62
     8
100
AcDbText
 10
250957.389
 20
10013.823
 30
0.0
 40
2700.0
  1
配 置 図，案 内 図
 41
0.888889
100
AcDbText
  0
TEXT
  5
22
100
AcDbEntity
  8
2-1
  6
CONTINUOUS
 62
     8
100
AcDbText
 10
316375.827
 20
9461.203
 30
0.0
 40
1800.0
  1
Ｓ＝１：６００
100
AcDbText
  0
LINE
  5
23
100
AcDbEntity
  8
2-1
  6
CONTINUOUS
 62
     3
100
AcDbLine
 10
144614.324
 20
136101.755
 30
0.0
 11
146389.324
 21
136101.755
 31
0.0
  0
LINE
  5
24
100
AcDbEntity
  8
2-1
  6
CONTINUOUS
 62
     3
100
AcDbLine
 10
147039.324
 20
136101.755
 30
0.0
 11
154564.324
 21
136101.755
 31
0.0
  0
LINE
  5
25
100
AcDbEntity
  8
2-1
  6
CONTINUOUS
 62
     3
100
AcDbLine
 10
155214.324
 20
136101.755
 30
0.0
 11
162664.324
 21
136101.755
 31
0.0
  0
LINE
  5
26
100
AcDbEntity
  8
2-1
  6
CONTINUOUS
 62
     3
100
AcDbLine
 10
143714.324
 20
135651.755
 30
0.0
 11
143714.324
 21
140101.755
 31
0.0
  0
LINE
  5
27
100
AcDbEntity
  8
2-1
  6
CONTINUOUS
 62
     3
100
AcDbLine
 10
143714.324
 20
141251.755
 30
0.0
 11
143714.324
 21
145101.755
 31
0.0
  0
LINE
  5
28
100
AcDbEntity
  8
2-1
  6
CONTINUOUS
 62
     3
100
AcDbLine
 10
163314.324
 20
135651.755
 30
0.0
 11
163314.324
 21
142801.755
 31
0.0
  0
LINE
  5
29
100
AcDbEntity
  8
2-1
  6
CONTINUOUS
 62
     3
100
AcDbLine
 10
143714.324
 20
145101.755
 30
0.0
 11
144614.324
 21
145101.755
 31
0.0
  0
LINE
  5
2A
100
AcDbEntity
  8
2-1
  6
CONTINUOUS
 62
     3
100
AcDbLine
 10
144614.324
 20
144521.755
 30
0.0
 11
146389.324
 21
144521.755
 31
0.0
  0
LINE
  5
2B
100
AcDbEntity
  8
2-1
  6
CONTINUOUS
 62
     3
100
AcDbLine
 10
147039.324
 20
144521.755
 30
0.0
 11
154564.324
 21
144521.755
 31
0.0
  0
LINE
  5
2C
100
AcDbEntity
  8
2-1
  6
CONTINUOUS
 62
     3
100
AcDbLine
 10
144614.324
 20
144521.755
 30
0.0
 11
144614.324
 21
145101.755
 31
0.0
  0
LINE
  5
2D
100
AcDbEntity
  8
2-1
  6
CONTINUOUS
 62
     3
100
AcDbLine
 10
144614.324
 20
136101.755
 30
0.0
 11
144614.324
 21
135651.755
 31
0.0
  0
LINE
  5
2E
100
AcDbEntity
  8
2-1
  6
CONTINUOUS
 62
     3
100
AcDbLine
 10
143714.324
 20
135651.755
 30
0.0
 11
144614.324
 21
135651.755
 31
0.0
  0
LINE
  5
2F
100
AcDbEntity
  8
2-1
  6
CONTINUOUS
 62
     3
100
AcDbLine
 10
146389.324
 20
135651.755
 30
0.0
 11
147039.324
 21
135651.755
 31
0.0
  0
LINE
  5
30
100
AcDbEntity
  8
2-1
  6
CONTINUOUS
 62
     3
100
AcDbLine
 10
146389.324
 20
135651.755
 30
0.0
 11
146389.324
 21
136101.755
 31
0.0
  0
LINE
  5
31
100
AcDbEntity
  8
2-1
  6
CONTINUOUS
 62
     3
100
AcDbLine
 10
147039.324
 20
135651.755
 30
0.0
 11
147039.324
 21
136101.755
 31
0.0
  0
LINE
  5
32
100
AcDbEntity
  8
2-1
  6
CONTINUOUS
 62
     3
100
AcDbLine
 10
154564.324
 20
135651.755
 30
0.0
 11
155214.324
 21
135651.755
 31
0.0
  0
LINE
  5
33
100
AcDbEntity
  8
2-1
  6
CONTINUOUS
 62
     3
100
AcDbLine
 10
154564.324
 20
135651.755
 30
0.0
 11
154564.324
 21
136101.755
 31
0.0
  0
LINE
  5
34
100
AcDbEntity
  8
2-1
  6
CONTINUOUS
 62
     3
100
AcDbLine
 10
155214.324
 20
135651.755
 30
0.0
 11
155214.324
 21
136101.755
 31
0.0
  0
LINE
  5
35
100
AcDbEntity
  8
2-1
  6
CONTINUOUS
 62
     3
100
AcDbLine
 10
162664.324
 20
135651.755
 30
0.0
 11
163314.324
 21
135651.755
 31
0.0
  0
LINE
  5
36
100
AcDbEntity
  8
2-1
  6
CONTINUOUS
 62
     3
100
AcDbLine
 10
162664.324
 20
135651.755
 30
0.0
 11
162664.324
 21
136101.755
 31
0.0
  0
LINE
  5
37
100
AcDbEntity
  8
2-1
  6
CONTINUOUS
 62
     3
100
AcDbLine
 10
147039.324
 20
144521.755
 30
0.0
 11
147039.324
 21
145101.755
 31
0.0
  0
LINE
  5
38
100
AcDbEntity
  8
2-1
  6
CONTINUOUS
 62
     3
100
AcDbLine
 10
146389.324
 20
144521.755
 30
0.0
 11
146389.324
 21
145101.755
 31
0.0
  0
LINE
  5
39
100
AcDbEntity
  8
2-1
  6
CONTINUOUS
 62
     3
100
AcDbLine
 10
146389.324
 20
145101.755
 30
0.0
 11
147039.324
 21
145101.755
 31
0.0
  0
LINE
  5
3A
100
AcDbEntity
  8
2-1
  6
CONTINUOUS
 62
     1
100
AcDbLine
 10
144614.324
 20
135651.755
 30
0.0
 11
146389.324
 21
135651.755
 31
0.0
  0
LINE
  5
3B
100
AcDbEntity
  8
2-1
  6
CONTINUOUS
 62
     1
100
AcDbLine
 10
144614.324
 20
145101.755
 30
0.0
 11
146389.324
 21
145101.755
 31
0.0
  0
LINE
  5
3C
100
AcDbEntity
  8
2-1
  6
CONTINUOUS
 62
     3
100
AcDbLine
 10
154564.324
 20
144521.755
 30
0.0
 11
154564.324
 21
145101.755
 31
0.0
  0
LINE
  5
3D
100
AcDbEntity
  8
2-1
  6
CONTINUOUS
 62
     3
100
AcDbLine
 10
155114.324
 20
145101.755
 30
0.0
 11
155114.324
 21
145801.755
 31
0.0
  0
LINE
  5
3E
100
AcDbEntity
  8
2-1
  6
CONTINUOUS
 62
     3
100
AcDbLine
 10
155114.324
 20
148101.755
 30
0.0
 11
155114.324
 21
154731.755
 31
0.0
  0
LINE
  5
3F
100
AcDbEntity
  8
2-1
  6
CONTINUOUS
 62
     3
100
AcDbLine
 10
154564.324
 20
145101.755
 30
0.0
 11
155114.324
 21
145101.755
 31
0.0
  0
LINE
  5
40
100
AcDbEntity
  8
2-1
  6
CONTINUOUS
 62
     3
100
AcDbLine
 10
154564.324
 20
148101.755
 30
0.0
 11
155114.324
 21
148101.755
 31
0.0
  0
LINE
  5
41
100
AcDbEntity
  8
2-1
  6
CONTINUOUS
 62
     3
100
AcDbLine
 10
154564.324
 20
145801.755
 30
0.0
 11
154564.324
 21
148101.755
 31
0.0
  0
LINE
  5
42
100
AcDbEntity
  8
2-1
  6
CONTINUOUS
 62
     3
100
AcDbLine
 10
154564.324
 20
145801.755
 30
0.0
 11
155114.324
 21
145801.755
 31
0.0
  0
LINE
  5
43
100
AcDbEntity
  8
2-1
  6
CONTINUOUS
 62
     3
100
AcDbLine
 10
155114.324
 20
154731.755
 30
0.0
 11
152914.324
 21
154731.755
 31
0.0
  0
LINE
  5
44
100
AcDbEntity
  8
2-1
  6
CONTINUOUS
 62
     3
100
AcDbLine
 10
152914.324
 20
162801.755
 30
0.0
 11
152914.324
 21
159266.755
 31
0.0
  0
LINE
  5
45
100
AcDbEntity
  8
2-1
  6
CONTINUOUS
 62
     3
100
AcDbLine
 10
152914.324
 20
158266.755
 30
0.0
 11
152914.324
 21
154731.755
 31
0.0
  0
LINE
  5
46
100
AcDbEntity
  8
2-1
  6
CONTINUOUS
 62
     3
100
AcDbLine
 10
155114.324
 20
162801.755
 30
0.0
 11
152914.324
 21
162801.755
 31
0.0
  0
LINE
  5
47
100
AcDbEntity
  8
2-1
  6
CONTINUOUS
 62
     3
100
AcDbLine
 10
163314.324
 20
142801.755
 30
0.0
 11
162664.324
 21
142801.755
 31
0.0
  0
LINE
  5
48
100
AcDbEntity
  8
2-1
  6
CONTINUOUS
 62
     1
100
AcDbLine
 10
164114.324
 20
138501.755
 30
0.0
 11
163314.324
 21
138501.755
 31
0.0
  0
LINE
  5
49
100
AcDbEntity
  8
2-1
  6
CONTINUOUS
 62
     1
100
AcDbLine
 10
164114.324
 20
140001.755
 30
0.0
 11
163314.324
 21
140001.755
 31
0.0
  0
LINE
  5
4A
100
AcDbEntity
  8
2-1
  6
CONTINUOUS
 62
     1
100
AcDbLine
 10
164114.324
 20
138501.755
 30
0.0
 11
164114.324
 21
140001.755
 31
0.0
  0
LINE
  5
4B
100
AcDbEntity
  8
2-1
  6
CONTINUOUS
 62
     3
100
AcDbLine
 10
163314.324
 20
145101.755
 30
0.0
 11
170989.324
 21
145101.755
 31
0.0
  0
LINE
  5
4C
100
AcDbEntity
  8
2-1
  6
CONTINUOUS
 62
     3
100
AcDbLine
 10
171639.324
 20
145101.755
 30
0.0
 11
179189.324
 21
145101.755
 31
0.0
  0
LINE
  5
4D
100
AcDbEntity
  8
2-1
  6
CONTINUOUS
 62
     3
100
AcDbLine
 10
179839.324
 20
145101.755
 30
0.0
 11
180614.324
 21
145101.755
 31
0.0
  0
LINE
  5
4E
100
AcDbEntity
  8
2-1
  6
CONTINUOUS
 62
     3
100
AcDbLine
 10
182914.324
 20
145101.755
 30
0.0
 11
183689.324
 21
145101.755
 31
0.0
  0
LINE
  5
4F
100
AcDbEntity
  8
2-1
  6
CONTINUOUS
 62
     3
100
AcDbLine
 10
184339.324
 20
145101.755
 30
0.0
 11
191889.324
 21
145101.755
 31
0.0
  0
LINE
  5
50
100
AcDbEntity
  8
2-1
  6
CONTINUOUS
 62
     3
100
AcDbLine
 10
192539.324
 20
145101.755
 30
0.0
 11
199764.324
 21
145101.755
 31
0.0
  0
LINE
  5
51
100
AcDbEntity
  8
2-1
  6
CONTINUOUS
 62
     3
100
AcDbLine
 10
200414.324
 20
144651.755
 30
0.0
 11
200414.324
 21
154601.755
 31
0.0
  0
LINE
  5
52
100
AcDbEntity
  8
2-1
  6
CONTINUOUS
 62
     3
100
AcDbLine
 10
200414.324
 20
154601.755
 30
0.0
 11
197937.324
 21
154601.755
 31
0.0
  0
LINE
  5
53
100
AcDbEntity
  8
2-1
  6
CONTINUOUS
 62
     3
100
AcDbLine
 10
195794.324
 20
154601.755
 30
0.0
 11
188434.324
 21
154601.755
 31
0.0
  0
LINE
  5
54
100
AcDbEntity
  8
2-1
  6
CONTINUOUS
 62
     3
100
AcDbLine
 10
186279.324
 20
154601.755
 30
0.0
 11
173514.324
 21
154601.755
 31
0.0
  0
LINE
  5
55
100
AcDbEntity
  8
2-1
  6
CONTINUOUS
 62
     3
100
AcDbLine
 10
169114.324
 20
154601.755
 30
0.0
 11
163314.324
 21
154601.755
 31
0.0
  0
LINE
  5
56
100
AcDbEntity
  8
2-1
  6
CONTINUOUS
 62
     3
100
AcDbLine
 10
170989.324
 20
144651.755
 30
0.0
 11
171639.324
 21
144651.755
 31
0.0
  0
LINE
  5
57
100
AcDbEntity
  8
2-1
  6
CONTINUOUS
 62
     3
100
AcDbLine
 10
170989.324
 20
144651.755
 30
0.0
 11
170989.324
 21
145101.755
 31
0.0
  0
LINE
  5
58
100
AcDbEntity
  8
2-1
  6
CONTINUOUS
 62
     3
100
AcDbLine
 10
171639.324
 20
144651.755
 30
0.0
 11
171639.324
 21
145101.755
 31
0.0
  0
LINE
  5
59
100
AcDbEntity
  8
2-1
  6
CONTINUOUS
 62
     3
100
AcDbLine
 10
179189.324
 20
144651.755
 30
0.0
 11
179839.324
 21
144651.755
 31
0.0
  0
LINE
  5
5A
100
AcDbEntity
  8
2-1
  6
CONTINUOUS
 62
     3
100
AcDbLine
 10
179189.324
 20
144651.755
 30
0.0
 11
179189.324
 21
145101.755
 31
0.0
  0
LINE
  5
5B
100
AcDbEntity
  8
2-1
  6
CONTINUOUS
 62
     3
100
AcDbLine
 10
179839.324
 20
144651.755
 30
0.0
 11
179839.324
 21
145101.755
 31
0.0
  0
LINE
  5
5C
100
AcDbEntity
  8
2-1
  6
CONTINUOUS
 62
     3
100
AcDbLine
 10
183689.324
 20
144651.755
 30
0.0
 11
184339.324
 21
144651.755
 31
0.0
  0
LINE
  5
5D
100
AcDbEntity
  8
2-1
  6
CONTINUOUS
 62
     3
100
AcDbLine
 10
183689.324
 20
144651.755
 30
0.0
 11
183689.324
 21
145101.755
 31
0.0
  0
LINE
  5
5E
100
AcDbEntity
  8
2-1
  6
CONTINUOUS
 62
     3
100
AcDbLine
 10
184339.324
 20
144651.755
 30
0.0
 11
184339.324
 21
145101.755
 31
0.0
  0
LINE
  5
5F
100
AcDbEntity
  8
2-1
  6
CONTINUOUS
 62
     3
100
AcDbLine
 10
191889.324
 20
144651.755
 30
0.0
 11
192539.324
 21
144651.755
 31
0.0
  0
LINE
  5
60
100
AcDbEntity
  8
2-1
  6
CONTINUOUS
 62
     3
100
AcDbLine
 10
191889.324
 20
144651.755
 30
0.0
 11
191889.324
 21
145101.755
 31
0.0
  0
LINE
  5
61
100
AcDbEntity
  8
2-1
  6
CONTINUOUS
 62
     3
100
AcDbLine
 10
192539.324
 20
144651.755
 30
0.0
 11
192539.324
 21
145101.755
 31
0.0
  0
LINE
  5
62
100
AcDbEntity
  8
2-1
  6
CONTINUOUS
 62
     3
100
AcDbLine
 10
199764.324
 20
144651.755
 30
0.0
 11
200414.324
 21
144651.755
 31
0.0
  0
LINE
  5
63
100
AcDbEntity
  8
2-1
  6
CONTINUOUS
 62
     3
100
AcDbLine
 10
199764.324
 20
144651.755
 30
0.0
 11
199764.324
 21
145101.755
 31
0.0
  0
LINE
  5
64
100
AcDbEntity
  8
2-1
  6
CONTINUOUS
 62
     1
100
AcDbLine
 10
200414.324
 20
142601.755
 30
0.0
 11
195739.324
 21
142601.755
 31
0.0
  0
LINE
  5
65
100
AcDbEntity
  8
2-1
  6
CONTINUOUS
 62
     1
100
AcDbLine
 10
200414.324
 20
140801.755
 30
0.0
 11
195739.324
 21
140801.755
 31
0.0
  0
LINE
  5
66
100
AcDbEntity
  8
2-1
  6
CONTINUOUS
 62
     1
100
AcDbLine
 10
200414.324
 20
144651.755
 30
0.0
 11
200414.324
 21
140801.755
 31
0.0
  0
LINE
  5
67
100
AcDbEntity
  8
2-1
  6
CONTINUOUS
 62
     1
100
AcDbLine
 10
195739.324
 20
142101.755
 30
0.0
 11
193220.55459
 21
142101.755
 31
0.0
  0
LINE
  5
68
100
AcDbEntity
  8
2-1
  6
CONTINUOUS
 62
     1
100
AcDbLine
 10
191208.09341
 20
142101.755
 30
0.0
 11
188689.324
 21
142101.755
 31
0.0
  0
LINE
  5
69
100
AcDbEntity
  8
2-1
  6
CONTINUOUS
 62
     1
100
AcDbLine
 10
195739.324
 20
141801.755
 30
0.0
 11
192964.324
 21
141801.755
 31
0.0
  0
LINE
  5
6A
100
AcDbEntity
  8
2-1
  6
CONTINUOUS
 62
     1
100
AcDbLine
 10
191464.324
 20
141801.755
 30
0.0
 11
188689.324
 21
141801.755
 31
0.0
  0
LINE
  5
6B
100
AcDbEntity
  8
2-1
  6
CONTINUOUS
 62
     1
100
AcDbLine
 10
183689.324
 20
144651.755
 30
0.0
 11
183689.324
 21
140801.755
 31
0.0
  0
LINE
  5
6C
100
AcDbEntity
  8
2-1
  6
CONTINUOUS
 62
     1
100
AcDbLine
 10
188689.324
 20
142601.755
 30
0.0
 11
188689.324
 21
140801.755
 31
0.0
  0
LINE
  5
6D
100
AcDbEntity
  8
2-1
  6
CONTINUOUS
 62
     1
100
AcDbLine
 10
188689.324
 20
140801.755
 30
0.0
 11
183689.324
 21
140801.755
 31
0.0
  0
LINE
  5
6E
100
AcDbEntity
  8
2-1
  6
CONTINUOUS
 62
     1
100
AcDbLine
 10
188689.324
 20
142601.755
 30
0.0
 11
183689.324
 21
142601.755
 31
0.0
  0
CIRCLE
  5
6F
100
AcDbEntity
  8
2-1
  6
CONTINUOUS
 62
     1
100
AcDbCircle
 10
192214.324
 20
141801.755
 30
0.0
 40
750.0
  0
ARC
  5
70
100
AcDbEntity
  8
2-1
  6
CONTINUOUS
 62
     1
100
AcDbCircle
 10
192214.324
 20
141801.755
 30
0.0
 40
1050.0
100
AcDbArc
 50
16.60155
 51
163.39845
  0
LINE
  5
71
100
AcDbEntity
  8
2-1
  6
CONTINUOUS
 62
     1
100
AcDbLine
 10
167789.324
 20
140801.755
 30
0.0
 11
163314.324
 21
140801.755
 31
0.0
  0
LINE
  5
72
100
AcDbEntity
  8
2-1
  6
CONTINUOUS
 62
     1
100
AcDbLine
 10
167789.324
 20
142601.755
 30
0.0
 11
163314.324
 21
142601.755
 31
0.0
  0
LINE
  5
73
100
AcDbEntity
  8
2-1
  6
CONTINUOUS
 62
     1
100
AcDbLine
 10
179839.324
 20
142601.755
 30
0.0
 11
174839.324
 21
142601.755
 31
0.0
  0
LINE
  5
74
100
AcDbEntity
  8
2-1
  6
CONTINUOUS
 62
     1
100
AcDbLine
 10
179839.324
 20
140801.755
 30
0.0
 11
174839.324
 21
140801.755
 31
0.0
  0
LINE
  5
75
100
AcDbEntity
  8
2-1
  6
CONTINUOUS
 62
     1
100
AcDbLine
 10
179839.324
 20
144651.755
 30
0.0
 11
179839.324
 21
140801.755
 31
0.0
  0
LINE
  5
76
100
AcDbEntity
  8
2-1
  6
CONTINUOUS
 62
     3
100
AcDbLine
 10
182914.324
 20
144651.755
 30
0.0
 11
180614.324
 21
144651.755
 31
0.0
  0
LINE
  5
77
100
AcDbEntity
  8
2-1
  6
CONTINUOUS
 62
     3
100
AcDbLine
 10
180614.324
 20
145101.755
 30
0.0
 11
180614.324
 21
144651.755
 31
0.0
  0
LINE
  5
78
100
AcDbEntity
  8
2-1
  6
CONTINUOUS
 62
     3
100
AcDbLine
 10
182914.324
 20
145101.755
 30
0.0
 11
182914.324
 21
144651.755
 31
0.0
  0
LINE
  5
79
100
AcDbEntity
  8
2-1
  6
CONTINUOUS
 62
     3
100
AcDbLine
 10
169114.324
 20
155301.755
 30
0.0
 11
169114.324
 21
154601.755
 31
0.0
  0
LINE
  5
7A
100
AcDbEntity
  8
2-1
  6
CONTINUOUS
 62
     3
100
AcDbLine
 10
173514.324
 20
155301.755
 30
0.0
 11
169114.324
 21
155301.755
 31
0.0
  0
LINE
  5
7B
100
AcDbEntity
  8
2-1
  6
CONTINUOUS
 62
     3
100
AcDbLine
 10
173514.324
 20
155301.755
 30
0.0
 11
173514.324
 21
154601.755
 31
0.0
  0
LINE
  5
7C
100
AcDbEntity
  8
2-1
  6
CONTINUOUS
 62
     1
100
AcDbLine
 10
195739.324
 20
142601.755
 30
0.0
 11
195739.324
 21
140801.755
 31
0.0
  0
LINE
  5
7D
100
AcDbEntity
  8
2-1
  6
CONTINUOUS
 62
     1
100
AcDbLine
 10
174839.324
 20
142101.755
 30
0.0
 11
172320.55459
 21
142101.755
 31
0.0
  0
LINE
  5
7E
100
AcDbEntity
  8
2-1
  6
CONTINUOUS
 62
     1
100
AcDbLine
 10
170308.09341
 20
142101.755
 30
0.0
 11
167789.324
 21
142101.755
 31
0.0
  0
LINE
  5
7F
100
AcDbEntity
  8
2-1
  6
CONTINUOUS
 62
     1
100
AcDbLine
 10
174839.324
 20
141801.755
 30
0.0
 11
172064.324
 21
141801.755
 31
0.0
  0
LINE
  5
80
100
AcDbEntity
  8
2-1
  6
CONTINUOUS
 62
     1
100
AcDbLine
 10
170564.324
 20
141801.755
 30
0.0
 11
167789.324
 21
141801.755
 31
0.0
  0
CIRCLE
  5
81
100
AcDbEntity
  8
2-1
  6
CONTINUOUS
 62
     1
100
AcDbCircle
 10
171314.324
 20
141801.755
 30
0.0
 40
750.0
  0
ARC
  5
82
100
AcDbEntity
  8
2-1
  6
CONTINUOUS
 62
     1
100
AcDbCircle
 10
171314.324
 20
141801.755
 30
0.0
 40
1050.0
100
AcDbArc
 50
16.60155
 51
163.39845
  0
LINE
  5
83
100
AcDbEntity
  8
2-1
  6
CONTINUOUS
 62
     1
100
AcDbLine
 10
174839.324
 20
140801.755
 30
0.0
 11
174839.324
 21
142601.755
 31
0.0
  0
LINE
  5
84
100
AcDbEntity
  8
2-1
  6
CONTINUOUS
 62
     1
100
AcDbLine
 10
167789.324
 20
140801.755
 30
0.0
 11
167789.324
 21
142601.755
 31
0.0
  0
LINE
  5
85
100
AcDbEntity
  8
2-1
  6
CONTINUOUS
 62
     3
100
AcDbLine
 10
163314.324
 20
154601.755
 30
0.0
 11
163314.324
 21
162901.755
 31
0.0
  0
LINE
  5
86
100
AcDbEntity
  8
2-1
  6
CONTINUOUS
 62
     3
100
AcDbLine
 10
162664.324
 20
144651.755
 30
0.0
 11
163314.324
 21
144651.755
 31
0.0
  0
LINE
  5
87
100
AcDbEntity
  8
2-1
  6
CONTINUOUS
 62
     3
100
AcDbLine
 10
162664.324
 20
144651.755
 30
0.0
 11
162664.324
 21
142801.755
 31
0.0
  0
LINE
  5
88
100
AcDbEntity
  8
2-1
  6
CONTINUOUS
 62
     3
100
AcDbLine
 10
163314.324
 20
144651.755
 30
0.0
 11
163314.324
 21
145101.755
 31
0.0
  0
LINE
  5
89
100
AcDbEntity
  8
2-1
  6
CONTINUOUS
 62
     1
100
AcDbLine
 10
163314.324
 20
142801.755
 30
0.0
 11
163314.324
 21
144651.755
 31
0.0
  0
LINE
  5
8A
100
AcDbEntity
  8
2-1
  6
CONTINUOUS
 62
     1
100
AcDbLine
 10
164614.324
 20
162601.755
 30
0.0
 11
163314.324
 21
162601.755
 31
0.0
  0
LINE
  5
8B
100
AcDbEntity
  8
2-1
  6
CONTINUOUS
 62
     1
100
AcDbLine
 10
164614.324
 20
170601.755
 30
0.0
 11
163439.324
 21
170601.755
 31
0.0
  0
LINE
  5
8C
100
AcDbEntity
  8
2-1
  6
CONTINUOUS
 62
     3
100
AcDbLine
 10
162814.324
 20
162901.755
 30
0.0
 11
163314.324
 21
162901.755
 31
0.0
  0
LINE
  5
8D
100
AcDbEntity
  8
2-1
  6
CONTINUOUS
 62
     3
100
AcDbLine
 10
162814.324
 20
170301.755
 30
0.0
 11
163439.324
 21
170301.755
 31
0.0
  0
LINE
  5
8E
100
AcDbEntity
  8
2-1
  6
CONTINUOUS
 62
     3
100
AcDbLine
 10
162814.324
 20
162901.755
 30
0.0
 11
162814.324
 21
170301.755
 31
0.0
  0
LINE
  5
8F
100
AcDbEntity
  8
2-1
  6
CONTINUOUS
 62
     1
100
AcDbLine
 10
164314.324
 20
162901.755
 30
0.0
 11
164314.324
 21
170301.755
 31
0.0
  0
LINE
  5
90
100
AcDbEntity
  8
2-1
  6
CONTINUOUS
 62
     1
100
AcDbLine
 10
164614.324
 20
162601.755
 30
0.0
 11
164614.324
 21
170601.755
 31
0.0
  0
LINE
  5
91
100
AcDbEntity
  8
2-1
  6
CONTINUOUS
 62
     1
100
AcDbLine
 10
163439.324
 20
170301.755
 30
0.0
 11
164314.324
 21
170301.755
 31
0.0
  0
LINE
  5
92
100
AcDbEntity
  8
2-1
  6
CONTINUOUS
 62
     1
100
AcDbLine
 10
163314.324
 20
162901.755
 30
0.0
 11
164314.324
 21
162901.755
 31
0.0
  0
LINE
  5
93
100
AcDbEntity
  8
2-1
  6
CONTINUOUS
 62
     3
100
AcDbLine
 10
152914.324
 20
159266.755
 30
0.0
 11
153294.324
 21
159266.755
 31
0.0
  0
LINE
  5
94
100
AcDbEntity
  8
2-1
  6
CONTINUOUS
 62
     3
100
AcDbLine
 10
152914.324
 20
158266.755
 30
0.0
 11
153294.324
 21
158266.755
 31
0.0
  0
LINE
  5
95
100
AcDbEntity
  8
2-1
  6
CONTINUOUS
 62
     3
100
AcDbLine
 10
153294.324
 20
158266.755
 30
0.0
 11
153294.324
 21
159266.755
 31
0.0
  0
LINE
  5
96
100
AcDbEntity
  8
2-1
  6
CONTINUOUS
 62
     3
100
AcDbLine
 10
155114.324
 20
162801.755
 30
0.0
 11
155114.324
 21
169331.755
 31
0.0
  0
LINE
  5
97
100
AcDbEntity
  8
2-1
  6
CONTINUOUS
 62
     3
100
AcDbLine
 10
154564.324
 20
169331.755
 30
0.0
 11
155114.324
 21
169331.755
 31
0.0
  0
LINE
  5
98
100
AcDbEntity
  8
2-1
  6
CONTINUOUS
 62
     3
100
AcDbLine
 10
154564.324
 20
169331.755
 30
0.0
 11
154564.324
 21
172671.755
 31
0.0
  0
LINE
  5
99
100
AcDbEntity
  8
2-1
  6
CONTINUOUS
 62
     1
100
AcDbLine
 10
150864.324
 20
149601.755
 30
0.0
 11
150864.324
 21
155931.755
 31
0.0
  0
LINE
  5
9A
100
AcDbEntity
  8
2-1
  6
CONTINUOUS
 62
     1
100
AcDbLine
 10
150524.324
 20
149601.755
 30
0.0
 11
150524.324
 21
154731.755
 31
0.0
  0
LINE
  5
9B
100
AcDbEntity
  8
2-1
  6
CONTINUOUS
 62
     1
100
AcDbLine
 10
150184.324
 20
149601.755
 30
0.0
 11
150184.324
 21
154731.755
 31
0.0
  0
LINE
  5
9C
100
AcDbEntity
  8
2-1
  6
CONTINUOUS
 62
     1
100
AcDbLine
 10
148264.324
 20
154731.755
 30
0.0
 11
148264.324
 21
155931.755
 31
0.0
  0
LINE
  5
9D
100
AcDbEntity
  8
2-1
  6
CONTINUOUS
 62
     1
100
AcDbLine
 10
150864.324
 20
154731.755
 30
0.0
 11
148264.324
 21
154731.755
 31
0.0
  0
LINE
  5
9E
100
AcDbEntity
  8
2-1
  6
CONTINUOUS
 62
     1
100
AcDbLine
 10
150864.324
 20
155931.755
 30
0.0
 11
148264.324
 21
155931.755
 31
0.0
  0
LINE
  5
9F
100
AcDbEntity
  8
2-1
  6
CONTINUOUS
 62
     1
100
AcDbLine
 10
150864.324
 20
157346.755
 30
0.0
 11
145864.324
 21
157346.755
 31
0.0
  0
LINE
  5
A0
100
AcDbEntity
  8
2-1
  6
CONTINUOUS
 62
     1
100
AcDbLine
 10
150864.324
 20
160346.755
 30
0.0
 11
145864.324
 21
160346.755
 31
0.0
  0
LINE
  5
A1
100
AcDbEntity
  8
2-1
  6
CONTINUOUS
 62
     1
100
AcDbLine
 10
150864.324
 20
157346.755
 30
0.0
 11
150864.324
 21
158346.755
 31
0.0
  0
LINE
  5
A2
100
AcDbEntity
  8
2-1
  6
CONTINUOUS
 62
     1
100
AcDbLine
 10
150864.324
 20
159346.755
 30
0.0
 11
150864.324
 21
160346.755
 31
0.0
  0
LINE
  5
A3
100
AcDbEntity
  8
2-1
  6
CONTINUOUS
 62
     1
100
AcDbLine
 10
151304.324
 20
158346.755
 30
0.0
 11
151304.324
 21
159346.755
 31
0.0
  0
LINE
  5
A4
100
AcDbEntity
  8
2-1
  6
CONTINUOUS
 62
     1
100
AcDbLine
 10
150864.324
 20
158846.755
 30
0.0
 11
152044.324
 21
158846.755
 31
0.0
  0
LINE
  5
A5
100
AcDbEntity
  8
2-1
  6
CONTINUOUS
 62
     1
100
AcDbLine
 10
151304.324
 20
159346.755
 30
0.0
 11
150304.324
 21
159346.755
 31
0.0
  0
LINE
  5
A6
100
AcDbEntity
  8
2-1
  6
CONTINUOUS
 62
     1
100
AcDbLine
 10
151304.324
 20
158346.755
 30
0.0
 11
150304.324
 21
158346.755
 31
0.0
  0
LINE
  5
A7
100
AcDbEntity
  8
2-1
  6
CONTINUOUS
 62
     1
100
AcDbLine
 10
150304.324
 20
159346.755
 30
0.0
 11
150304.324
 21
158346.755
 31
0.0
  0
LINE
  5
A8
100
AcDbEntity
  8
2-1
  6
CONTINUOUS
 62
     1
100
AcDbLine
 10
150524.324
 20
155931.755
 30
0.0
 11
150524.324
 21
157346.755
 31
0.0
  0
LINE
  5
A9
100
AcDbEntity
  8
2-1
  6
CONTINUOUS
 62
     1
100
AcDbLine
 10
148264.324
 20
162961.755
 30
0.0
 11
148264.324
 21
161761.755
 31
0.0
  0
LINE
  5
AA
100
AcDbEntity
  8
2-1
  6
CONTINUOUS
 62
     1
100
AcDbLine
 10
150864.324
 20
162961.755
 30
0.0
 11
148264.324
 21
162961.755
 31
0.0
  0
LINE
  5
AB
100
AcDbEntity
  8
2-1
  6
CONTINUOUS
 62
     1
100
AcDbLine
 10
150864.324
 20
161761.755
 30
0.0
 11
148264.324
 21
161761.755
 31
0.0
  0
LINE
  5
AC
100
AcDbEntity
  8
2-1
  6
CONTINUOUS
 62
     1
100
AcDbLine
 10
150864.324
 20
169331.755
 30
0.0
 11
150864.324
 21
161761.755
 31
0.0
  0
LINE
  5
AD
100
AcDbEntity
  8
2-1
  6
CONTINUOUS
 62
     1
100
AcDbLine
 10
150524.324
 20
169331.755
 30
0.0
 11
150524.324
 21
162961.755
 31
0.0
  0
LINE
  5
AE
100
AcDbEntity
  8
2-1
  6
CONTINUOUS
 62
     1
100
AcDbLine
 10
150184.324
 20
169331.755
 30
0.0
 11
150184.324
 21
162961.755
 31
0.0
  0
LINE
  5
AF
100
AcDbEntity
  8
2-1
  6
CONTINUOUS
 62
     1
100
AcDbLine
 10
150524.324
 20
161761.755
 30
0.0
 11
150524.324
 21
160346.755
 31
0.0
  0
LINE
  5
B0
100
AcDbEntity
  8
2-1
  6
CONTINUOUS
 62
     1
100
AcDbLine
 10
149364.324
 20
160346.755
 30
0.0
 11
149364.324
 21
161761.755
 31
0.0
  0
LINE
  5
B1
100
AcDbEntity
  8
2-1
  6
CONTINUOUS
 62
     1
100
AcDbLine
 10
148464.324
 20
157346.755
 30
0.0
 11
148464.324
 21
160346.755
 31
0.0
  0
LINE
  5
B2
100
AcDbEntity
  8
2-1
  6
CONTINUOUS
 62
     1
100
AcDbLine
 10
148264.324
 20
157346.755
 30
0.0
 11
148264.324
 21
160346.755
 31
0.0
  0
LINE
  5
B3
100
AcDbEntity
  8
2-1
  6
CONTINUOUS
 62
     1
100
AcDbLine
 10
145864.324
 20
160346.755
 30
0.0
 11
145864.324
 21
157346.755
 31
0.0
  0
LINE
  5
B4
100
AcDbEntity
  8
2-1
  6
CONTINUOUS
 62
     1
100
AcDbLine
 10
153364.324
 20
169331.755
 30
0.0
 11
147039.324
 21
169331.755
 31
0.0
  0
LINE
  5
B5
100
AcDbEntity
  8
2-1
  6
CONTINUOUS
 62
     3
100
AcDbLine
 10
142564.324
 20
140101.755
 30
0.0
 11
143714.324
 21
140101.755
 31
0.0
  0
LINE
  5
B6
100
AcDbEntity
  8
2-1
  6
CONTINUOUS
 62
     3
100
AcDbLine
 10
142564.324
 20
140101.755
 30
0.0
 11
143714.324
 21
141251.755
 31
0.0
  0
LINE
  5
B7
100
AcDbEntity
  8
2-1
  6
CONTINUOUS
 62
     3
100
AcDbLine
 10
126214.324
 20
182621.755
 30
0.0
 11
126214.324
 21
172221.755
 31
0.0
  0
LINE
  5
B8
100
AcDbEntity
  8
2-1
  6
CONTINUOUS
 62
     3
100
AcDbLine
 10
128439.324
 20
172671.755
 30
0.0
 11
129239.324
 21
172671.755
 31
0.0
  0
LINE
  5
B9
100
AcDbEntity
  8
2-1
  6
CONTINUOUS
 62
     3
100
AcDbLine
 10
130839.324
 20
172671.755
 30
0.0
 11
131639.324
 21
172671.755
 31
0.0
  0
LINE
  5
BA
100
AcDbEntity
  8
2-1
  6
CONTINUOUS
 62
     3
100
AcDbLine
 10
133239.324
 20
172671.755
 30
0.0
 11
134039.324
 21
172671.755
 31
0.0
  0
LINE
  5
BB
100
AcDbEntity
  8
2-1
  6
CONTINUOUS
 62
     3
100
AcDbLine
 10
135639.324
 20
172671.755
 30
0.0
 11
136439.324
 21
172671.755
 31
0.0
  0
LINE
  5
BC
100
AcDbEntity
  8
2-1
  6
CONTINUOUS
 62
     3
100
AcDbLine
 10
138039.324
 20
172671.755
 30
0.0
 11
138936.824
 21
172671.755
 31
0.0
  0
LINE
  5
BD
100
AcDbEntity
  8
2-1
  6
CONTINUOUS
 62
     3
100
AcDbLine
 10
126214.324
 20
172221.755
 30
0.0
 11
128439.324
 21
172221.755
 31
0.0
  0
LINE
  5
BE
100
AcDbEntity
  8
2-1
  6
CONTINUOUS
 62
     3
100
AcDbLine
 10
128439.324
 20
172221.755
 30
0.0
 11
128439.324
 21
172671.755
 31
0.0
  0
LINE
  5
BF
100
AcDbEntity
  8
2-1
  6
CONTINUOUS
 62
     3
100
AcDbLine
 10
129239.324
 20
172221.755
 30
0.0
 11
129239.324
 21
172671.755
 31
0.0
  0
LINE
  5
C0
100
AcDbEntity
  8
2-1
  6
CONTINUOUS
 62
     3
100
AcDbLine
 10
130839.324
 20
172221.755
 30
0.0
 11
130839.324
 21
172671.755
 31
0.0
  0
LINE
  5
C1
100
AcDbEntity
  8
2-1
  6
CONTINUOUS
 62
     3
100
AcDbLine
 10
131639.324
 20
172221.755
 30
0.0
 11
131639.324
 21
172671.755
 31
0.0
  0
LINE
  5
C2
100
AcDbEntity
  8
2-1
  6
CONTINUOUS
 62
     3
100
AcDbLine
 10
133239.324
 20
172221.755
 30
0.0
 11
133239.324
 21
172671.755
 31
0.0
  0
LINE
  5
C3
100
AcDbEntity
  8
2-1
  6
CONTINUOUS
 62
     3
100
AcDbLine
 10
129239.324
 20
172221.755
 30
0.0
 11
130839.324
 21
172221.755
 31
0.0
  0
LINE
  5
C4
100
AcDbEntity
  8
2-1
  6
CONTINUOUS
 62
     3
100
AcDbLine
 10
131639.324
 20
172221.755
 30
0.0
 11
133239.324
 21
172221.755
 31
0.0
  0
LINE
  5
C5
100
AcDbEntity
  8
2-1
  6
CONTINUOUS
 62
     3
100
AcDbLine
 10
134039.324
 20
172221.755
 30
0.0
 11
134039.324
 21
172671.755
 31
0.0
  0
LINE
  5
C6
100
AcDbEntity
  8
2-1
  6
CONTINUOUS
 62
     3
100
AcDbLine
 10
135639.324
 20
172221.755
 30
0.0
 11
135639.324
 21
172671.755
 31
0.0
  0
LINE
  5
C7
100
AcDbEntity
  8
2-1
  6
CONTINUOUS
 62
     3
100
AcDbLine
 10
134039.324
 20
172221.755
 30
0.0
 11
135639.324
 21
172221.755
 31
0.0
  0
LINE
  5
C8
100
AcDbEntity
  8
2-1
  6
CONTINUOUS
 62
     3
100
AcDbLine
 10
136439.324
 20
172221.755
 30
0.0
 11
136439.324
 21
172671.755
 31
0.0
  0
LINE
  5
C9
100
AcDbEntity
  8
2-1
  6
CONTINUOUS
 62
     3
100
AcDbLine
 10
138039.324
 20
172221.755
 30
0.0
 11
138039.324
 21
172671.755
 31
0.0
  0
LINE
  5
CA
100
AcDbEntity
  8
2-1
  6
CONTINUOUS
 62
     3
100
AcDbLine
 10
136439.324
 20
172221.755
 30
0.0
 11
138039.324
 21
172221.755
 31
0.0
  0
LINE
  5
CB
100
AcDbEntity
  8
2-1
  6
CONTINUOUS
 62
     3
100
AcDbLine
 10
138936.824
 20
172221.755
 30
0.0
 11
138936.824
 21
172671.755
 31
0.0
  0
LINE
  5
CC
100
AcDbEntity
  8
2-1
  6
CONTINUOUS
 62
     3
100
AcDbLine
 10
140439.324
 20
172221.755
 30
0.0
 11
140439.324
 21
172671.755
 31
0.0
  0
LINE
  5
CD
100
AcDbEntity
  8
2-1
  6
CONTINUOUS
 62
     3
100
AcDbLine
 10
138936.824
 20
172221.755
 30
0.0
 11
140439.324
 21
172221.755
 31
0.0
  0
LINE
  5
CE
100
AcDbEntity
  8
2-1
  6
CONTINUOUS
 62
     3
100
AcDbLine
 10
140439.324
 20
172671.755
 30
0.0
 11
141239.324
 21
172671.755
 31
0.0
  0
LINE
  5
CF
100
AcDbEntity
  8
2-1
  6
CONTINUOUS
 62
     3
100
AcDbLine
 10
128439.324
 20
182171.755
 30
0.0
 11
129239.324
 21
182171.755
 31
0.0
  0
LINE
  5
D0
100
AcDbEntity
  8
2-1
  6
CONTINUOUS
 62
     3
100
AcDbLine
 10
130839.324
 20
182171.755
 30
0.0
 11
131639.324
 21
182171.755
 31
0.0
  0
LINE
  5
D1
100
AcDbEntity
  8
2-1
  6
CONTINUOUS
 62
     3
100
AcDbLine
 10
133239.324
 20
182171.755
 30
0.0
 11
134039.324
 21
182171.755
 31
0.0
  0
LINE
  5
D2
100
AcDbEntity
  8
2-1
  6
CONTINUOUS
 62
     3
100
AcDbLine
 10
135639.324
 20
182171.755
 30
0.0
 11
136439.324
 21
182171.755
 31
0.0
  0
LINE
  5
D3
100
AcDbEntity
  8
2-1
  6
CONTINUOUS
 62
     3
100
AcDbLine
 10
138039.324
 20
182171.755
 30
0.0
 11
138936.824
 21
182171.755
 31
0.0
  0
LINE
  5
D4
100
AcDbEntity
  8
2-1
  6
CONTINUOUS
 62
     3
100
AcDbLine
 10
126214.324
 20
182621.755
 30
0.0
 11
128439.324
 21
182621.755
 31
0.0
  0
LINE
  5
D5
100
AcDbEntity
  8
2-1
  6
CONTINUOUS
 62
     3
100
AcDbLine
 10
128439.324
 20
182621.755
 30
0.0
 11
128439.324
 21
182171.755
 31
0.0
  0
LINE
  5
D6
100
AcDbEntity
  8
2-1
  6
CONTINUOUS
 62
     3
100
AcDbLine
 10
129239.324
 20
182621.755
 30
0.0
 11
129239.324
 21
182171.755
 31
0.0
  0
LINE
  5
D7
100
AcDbEntity
  8
2-1
  6
CONTINUOUS
 62
     3
100
AcDbLine
 10
130839.324
 20
182621.755
 30
0.0
 11
130839.324
 21
182171.755
 31
0.0
  0
LINE
  5
D8
100
AcDbEntity
  8
2-1
  6
CONTINUOUS
 62
     3
100
AcDbLine
 10
131639.324
 20
182621.755
 30
0.0
 11
131639.324
 21
182171.755
 31
0.0
  0
LINE
  5
D9
100
AcDbEntity
  8
2-1
  6
CONTINUOUS
 62
     3
100
AcDbLine
 10
133239.324
 20
182621.755
 30
0.0
 11
133239.324
 21
182171.755
 31
0.0
  0
LINE
  5
DA
100
AcDbEntity
  8
2-1
  6
CONTINUOUS
 62
     3
100
AcDbLine
 10
129239.324
 20
182621.755
 30
0.0
 11
130839.324
 21
182621.755
 31
0.0
  0
LINE
  5
DB
100
AcDbEntity
  8
2-1
  6
CONTINUOUS
 62
     3
100
AcDbLine
 10
131639.324
 20
182621.755
 30
0.0
 11
133239.324
 21
182621.755
 31
0.0
  0
LINE
  5
DC
100
AcDbEntity
  8
2-1
  6
CONTINUOUS
 62
     3
100
AcDbLine
 10
134039.324
 20
182621.755
 30
0.0
 11
134039.324
 21
182171.755
 31
0.0
  0
LINE
  5
DD
100
AcDbEntity
  8
2-1
  6
CONTINUOUS
 62
     3
100
AcDbLine
 10
135639.324
 20
182621.755
 30
0.0
 11
135639.324
 21
182171.755
 31
0.0
  0
LINE
  5
DE
100
AcDbEntity
  8
2-1
  6
CONTINUOUS
 62
     3
100
AcDbLine
 10
134039.324
 20
182621.755
 30
0.0
 11
135639.324
 21
182621.755
 31
0.0
  0
LINE
  5
DF
100
AcDbEntity
  8
2-1
  6
CONTINUOUS
 62
     3
100
AcDbLine
 10
136439.324
 20
182621.755
 30
0.0
 11
136439.324
 21
182171.755
 31
0.0
  0
LINE
  5
E0
100
AcDbEntity
  8
2-1
  6
CONTINUOUS
 62
     3
100
AcDbLine
 10
138039.324
 20
182621.755
 30
0.0
 11
138039.324
 21
182171.755
 31
0.0
  0
LINE
  5
E1
100
AcDbEntity
  8
2-1
  6
CONTINUOUS
 62
     3
100
AcDbLine
 10
136439.324
 20
182621.755
 30
0.0
 11
138039.324
 21
182621.755
 31
0.0
  0
LINE
  5
E2
100
AcDbEntity
  8
2-1
  6
CONTINUOUS
 62
     3
100
AcDbLine
 10
138936.824
 20
182171.755
 30
0.0
 11
138936.824
 21
182621.755
 31
0.0
  0
LINE
  5
E3
100
AcDbEntity
  8
2-1
  6
CONTINUOUS
 62
     3
100
AcDbLine
 10
139734.324
 20
182171.755
 30
0.0
 11
139734.324
 21
182621.755
 31
0.0
  0
LINE
  5
E4
100
AcDbEntity
  8
2-1
  6
CONTINUOUS
 62
     3
100
AcDbLine
 10
138936.824
 20
182621.755
 30
0.0
 11
139734.324
 21
182621.755
 31
0.0
  0
LINE
  5
E5
100
AcDbEntity
  8
2-1
  6
CONTINUOUS
 62
     3
100
AcDbLine
 10
139734.324
 20
182171.755
 30
0.0
 11
141034.324
 21
182171.755
 31
0.0
  0
LINE
  5
E6
100
AcDbEntity
  8
2-1
  6
CONTINUOUS
 62
     3
100
AcDbLine
 10
141034.324
 20
182621.755
 30
0.0
 11
142614.324
 21
182621.755
 31
0.0
  0
LINE
  5
E7
100
AcDbEntity
  8
2-1
  6
CONTINUOUS
 62
     3
100
AcDbLine
 10
141034.324
 20
182621.755
 30
0.0
 11
141034.324
 21
182171.755
 31
0.0
  0
LINE
  5
E8
100
AcDbEntity
  8
2-1
  6
CONTINUOUS
 62
     3
100
AcDbLine
 10
142614.324
 20
188371.755
 30
0.0
 11
142614.324
 21
182621.755
 31
0.0
  0
LINE
  5
E9
100
AcDbEntity
  8
2-1
  6
CONTINUOUS
 62
     3
100
AcDbLine
 10
142614.324
 20
188371.755
 30
0.0
 11
146714.324
 21
188371.755
 31
0.0
  0
LINE
  5
EA
100
AcDbEntity
  8
2-1
  6
CONTINUOUS
 62
     3
100
AcDbLine
 10
146714.324
 20
188371.755
 30
0.0
 11
146714.324
 21
182621.755
 31
0.0
  0
LINE
  5
EB
100
AcDbEntity
  8
2-1
  6
CONTINUOUS
 62
     3
100
AcDbLine
 10
147039.324
 20
182171.755
 30
0.0
 11
147039.324
 21
182621.755
 31
0.0
  0
LINE
  5
EC
100
AcDbEntity
  8
2-1
  6
CONTINUOUS
 62
     3
100
AcDbLine
 10
146714.324
 20
182621.755
 30
0.0
 11
147039.324
 21
182621.755
 31
0.0
  0
LINE
  5
ED
100
AcDbEntity
  8
2-1
  6
CONTINUOUS
 62
     3
100
AcDbLine
 10
147039.324
 20
182171.755
 30
0.0
 11
154564.324
 21
182171.755
 31
0.0
  0
LINE
  5
EE
100
AcDbEntity
  8
2-1
  6
CONTINUOUS
 62
     3
100
AcDbLine
 10
145064.324
 20
172221.755
 30
0.0
 11
145064.324
 21
172671.755
 31
0.0
  0
LINE
  5
EF
100
AcDbEntity
  8
2-1
  6
CONTINUOUS
 62
     3
100
AcDbLine
 10
144264.324
 20
172221.755
 30
0.0
 11
144264.324
 21
172671.755
 31
0.0
  0
LINE
  5
F0
100
AcDbEntity
  8
2-1
  6
CONTINUOUS
 62
     3
100
AcDbLine
 10
141239.324
 20
172671.755
 30
0.0
 11
141239.324
 21
172221.755
 31
0.0
  0
LINE
  5
F1
100
AcDbEntity
  8
2-1
  6
CONTINUOUS
 62
     3
100
AcDbLine
 10
141239.324
 20
172221.755
 30
0.0
 11
144264.324
 21
172221.755
 31
0.0
  0
LINE
  5
F2
100
AcDbEntity
  8
2-1
  6
CONTINUOUS
 62
     3
100
AcDbLine
 10
144264.324
 20
172671.755
 30
0.0
 11
145064.324
 21
172671.755
 31
0.0
  0
LINE
  5
F3
100
AcDbEntity
  8
2-1
  6
CONTINUOUS
 62
     3
100
AcDbLine
 10
145064.324
 20
172221.755
 30
0.0
 11
147039.324
 21
172221.755
 31
0.0
  0
LINE
  5
F4
100
AcDbEntity
  8
2-1
  6
CONTINUOUS
 62
     3
100
AcDbLine
 10
147039.324
 20
172221.755
 30
0.0
 11
147039.324
 21
172671.755
 31
0.0
  0
LINE
  5
F5
100
AcDbEntity
  8
2-1
  6
CONTINUOUS
 62
     3
100
AcDbLine
 10
147039.324
 20
172671.755
 30
0.0
 11
154564.324
 21
172671.755
 31
0.0
  0
LINE
  5
F6
100
AcDbEntity
  8
2-1
  6
CONTINUOUS
 62
     1
100
AcDbLine
 10
147039.324
 20
172221.755
 30
0.0
 11
147039.324
 21
169331.755
 31
0.0
  0
LINE
  5
F7
100
AcDbEntity
  8
2-1
  6
CONTINUOUS
 62
     1
100
AcDbLine
 10
144264.324
 20
172221.755
 30
0.0
 11
145064.324
 21
172221.755
 31
0.0
  0
LINE
  5
F8
100
AcDbEntity
  8
2-1
  6
CONTINUOUS
 62
     1
100
AcDbLine
 10
153364.324
 20
169331.755
 30
0.0
 11
153364.324
 21
172671.755
 31
0.0
  0
LINE
  5
F9
100
AcDbEntity
  8
2-1
  6
CONTINUOUS
 62
     3
100
AcDbLine
 10
154564.324
 20
182171.755
 30
0.0
 11
154564.324
 21
182621.755
 31
0.0
  0
LINE
  5
FA
100
AcDbEntity
  8
2-1
  6
CONTINUOUS
 62
     3
100
AcDbLine
 10
155239.324
 20
182621.755
 30
0.0
 11
155239.324
 21
182171.755
 31
0.0
  0
LINE
  5
FB
100
AcDbEntity
  8
2-1
  6
CONTINUOUS
 62
     3
100
AcDbLine
 10
154564.324
 20
182621.755
 30
0.0
 11
155239.324
 21
182621.755
 31
0.0
  0
LINE
  5
FC
100
AcDbEntity
  8
2-1
  6
CONTINUOUS
 62
     3
100
AcDbLine
 10
155239.324
 20
182171.755
 30
0.0
 11
159614.324
 21
182171.755
 31
0.0
  0
LINE
  5
FD
100
AcDbEntity
  8
2-1
  6
CONTINUOUS
 62
     3
100
AcDbLine
 10
159614.324
 20
182171.755
 30
0.0
 11
159614.324
 21
183201.755
 31
0.0
  0
LINE
  5
FE
100
AcDbEntity
  8
2-1
  6
CONTINUOUS
 62
     1
100
AcDbLine
 10
158614.324
 20
183201.755
 30
0.0
 11
158614.324
 21
191101.755
 31
0.0
  0
LINE
  5
FF
100
AcDbEntity
  8
2-1
  6
CONTINUOUS
 62
     3
100
AcDbLine
 10
160114.324
 20
183201.755
 30
0.0
 11
158614.324
 21
183201.755
 31
0.0
  0
LINE
  5
100
100
AcDbEntity
  8
2-1
  6
CONTINUOUS
 62
     3
100
AcDbLine
 10
159614.324
 20
192701.755
 30
0.0
 11
159614.324
 21
193151.755
 31
0.0
  0
LINE
  5
101
100
AcDbEntity
  8
2-1
  6
CONTINUOUS
 62
     3
100
AcDbLine
 10
159614.324
 20
193151.755
 30
0.0
 11
163439.324
 21
193151.755
 31
0.0
  0
LINE
  5
102
100
AcDbEntity
  8
2-1
  6
CONTINUOUS
 62
     3
100
AcDbLine
 10
160114.324
 20
192701.755
 30
0.0
 11
159614.324
 21
192701.755
 31
0.0
  0
LINE
  5
103
100
AcDbEntity
  8
2-1
  6
CONTINUOUS
 62
     3
100
AcDbLine
 10
160114.324
 20
192701.755
 30
0.0
 11
160114.324
 21
183201.755
 31
0.0
  0
LINE
  5
104
100
AcDbEntity
  8
2-1
  6
CONTINUOUS
 62
     3
100
AcDbLine
 10
163439.324
 20
193151.755
 30
0.0
 11
163439.324
 21
192701.755
 31
0.0
  0
LINE
  5
105
100
AcDbEntity
  8
2-1
  6
CONTINUOUS
 62
     3
100
AcDbLine
 10
163439.324
 20
192701.755
 30
0.0
 11
170989.324
 21
192701.755
 31
0.0
  0
LINE
  5
106
100
AcDbEntity
  8
2-1
  6
CONTINUOUS
 62
     3
100
AcDbLine
 10
179514.324
 20
198901.755
 30
0.0
 11
183614.324
 21
198901.755
 31
0.0
  0
LINE
  5
107
100
AcDbEntity
  8
2-1
  6
CONTINUOUS
 62
     3
100
AcDbLine
 10
179514.324
 20
198901.755
 30
0.0
 11
179514.324
 21
193151.755
 31
0.0
  0
LINE
  5
108
100
AcDbEntity
  8
2-1
  6
CONTINUOUS
 62
     3
100
AcDbLine
 10
183614.324
 20
198901.755
 30
0.0
 11
183614.324
 21
193151.755
 31
0.0
  0
LINE
  5
109
100
AcDbEntity
  8
2-1
  6
CONTINUOUS
 62
     3
100
AcDbLine
 10
170989.324
 20
192701.755
 30
0.0
 11
170989.324
 21
193151.755
 31
0.0
  0
LINE
  5
10A
100
AcDbEntity
  8
2-1
  6
CONTINUOUS
 62
     3
100
AcDbLine
 10
171639.324
 20
192701.755
 30
0.0
 11
171639.324
 21
193151.755
 31
0.0
  0
LINE
  5
10B
100
AcDbEntity
  8
2-1
  6
CONTINUOUS
 62
     3
100
AcDbLine
 10
170989.324
 20
193151.755
 30
0.0
 11
171639.324
 21
193151.755
 31
0.0
  0
LINE
  5
10C
100
AcDbEntity
  8
2-1
  6
CONTINUOUS
 62
     3
100
AcDbLine
 10
179189.324
 20
192701.755
 30
0.0
 11
179189.324
 21
193151.755
 31
0.0
  0
LINE
  5
10D
100
AcDbEntity
  8
2-1
  6
CONTINUOUS
 62
     3
100
AcDbLine
 10
179189.324
 20
193151.755
 30
0.0
 11
179514.324
 21
193151.755
 31
0.0
  0
LINE
  5
10E
100
AcDbEntity
  8
2-1
  6
CONTINUOUS
 62
     3
100
AcDbLine
 10
171639.324
 20
192701.755
 30
0.0
 11
179189.324
 21
192701.755
 31
0.0
  0
LINE
  5
10F
100
AcDbEntity
  8
2-1
  6
CONTINUOUS
 62
     3
100
AcDbLine
 10
183939.324
 20
192701.755
 30
0.0
 11
183939.324
 21
193151.755
 31
0.0
  0
LINE
  5
110
100
AcDbEntity
  8
2-1
  6
CONTINUOUS
 62
     3
100
AcDbLine
 10
191489.324
 20
193151.755
 30
0.0
 11
192139.324
 21
193151.755
 31
0.0
  0
LINE
  5
111
100
AcDbEntity
  8
2-1
  6
CONTINUOUS
 62
     3
100
AcDbLine
 10
191489.324
 20
192701.755
 30
0.0
 11
191489.324
 21
193151.755
 31
0.0
  0
LINE
  5
112
100
AcDbEntity
  8
2-1
  6
CONTINUOUS
 62
     3
100
AcDbLine
 10
192139.324
 20
192701.755
 30
0.0
 11
192139.324
 21
193151.755
 31
0.0
  0
LINE
  5
113
100
AcDbEntity
  8
2-1
  6
CONTINUOUS
 62
     3
100
AcDbLine
 10
199364.324
 20
193151.755
 30
0.0
 11
200014.324
 21
193151.755
 31
0.0
  0
LINE
  5
114
100
AcDbEntity
  8
2-1
  6
CONTINUOUS
 62
     3
100
AcDbLine
 10
199364.324
 20
192701.755
 30
0.0
 11
199364.324
 21
193151.755
 31
0.0
  0
LINE
  5
115
100
AcDbEntity
  8
2-1
  6
CONTINUOUS
 62
     3
100
AcDbLine
 10
200014.324
 20
182751.755
 30
0.0
 11
200014.324
 21
193151.755
 31
0.0
  0
LINE
  5
116
100
AcDbEntity
  8
2-1
  6
CONTINUOUS
 62
     3
100
AcDbLine
 10
183614.324
 20
193151.755
 30
0.0
 11
183939.324
 21
193151.755
 31
0.0
  0
LINE
  5
117
100
AcDbEntity
  8
2-1
  6
CONTINUOUS
 62
     3
100
AcDbLine
 10
183939.324
 20
192701.755
 30
0.0
 11
191489.324
 21
192701.755
 31
0.0
  0
LINE
  5
118
100
AcDbEntity
  8
2-1
  6
CONTINUOUS
 62
     3
100
AcDbLine
 10
192139.324
 20
192701.755
 30
0.0
 11
199364.324
 21
192701.755
 31
0.0
  0
LINE
  5
119
100
AcDbEntity
  8
2-1
  6
CONTINUOUS
 62
     3
100
AcDbLine
 10
191489.324
 20
182751.755
 30
0.0
 11
192139.324
 21
182751.755
 31
0.0
  0
LINE
  5
11A
100
AcDbEntity
  8
2-1
  6
CONTINUOUS
 62
     3
100
AcDbLine
 10
191489.324
 20
183201.755
 30
0.0
 11
191489.324
 21
182751.755
 31
0.0
  0
LINE
  5
11B
100
AcDbEntity
  8
2-1
  6
CONTINUOUS
 62
     3
100
AcDbLine
 10
192139.324
 20
183201.755
 30
0.0
 11
192139.324
 21
182751.755
 31
0.0
  0
LINE
  5
11C
100
AcDbEntity
  8
2-1
  6
CONTINUOUS
 62
     3
100
AcDbLine
 10
199364.324
 20
182751.755
 30
0.0
 11
200014.324
 21
182751.755
 31
0.0
  0
LINE
  5
11D
100
AcDbEntity
  8
2-1
  6
CONTINUOUS
 62
     3
100
AcDbLine
 10
199364.324
 20
183201.755
 30
0.0
 11
199364.324
 21
182751.755
 31
0.0
  0
LINE
  5
11E
100
AcDbEntity
  8
2-1
  6
CONTINUOUS
 62
     3
100
AcDbLine
 10
170989.324
 20
183201.755
 30
0.0
 11
170989.324
 21
182751.755
 31
0.0
  0
LINE
  5
11F
100
AcDbEntity
  8
2-1
  6
CONTINUOUS
 62
     3
100
AcDbLine
 10
171639.324
 20
183201.755
 30
0.0
 11
171639.324
 21
182751.755
 31
0.0
  0
LINE
  5
120
100
AcDbEntity
  8
2-1
  6
CONTINUOUS
 62
     3
100
AcDbLine
 10
170989.324
 20
182751.755
 30
0.0
 11
171639.324
 21
182751.755
 31
0.0
  0
LINE
  5
121
100
AcDbEntity
  8
2-1
  6
CONTINUOUS
 62
     3
100
AcDbLine
 10
179189.324
 20
183201.755
 30
0.0
 11
179189.324
 21
182751.755
 31
0.0
  0
LINE
  5
122
100
AcDbEntity
  8
2-1
  6
CONTINUOUS
 62
     3
100
AcDbLine
 10
179189.324
 20
182751.755
 30
0.0
 11
181164.324
 21
182751.755
 31
0.0
  0
LINE
  5
123
100
AcDbEntity
  8
2-1
  6
CONTINUOUS
 62
     3
100
AcDbLine
 10
181964.324
 20
182751.755
 30
0.0
 11
183939.324
 21
182751.755
 31
0.0
  0
LINE
  5
124
100
AcDbEntity
  8
2-1
  6
CONTINUOUS
 62
     3
100
AcDbLine
 10
183939.324
 20
183201.755
 30
0.0
 11
183939.324
 21
182751.755
 31
0.0
  0
LINE
  5
125
100
AcDbEntity
  8
2-1
  6
CONTINUOUS
 62
     3
100
AcDbLine
 10
181164.324
 20
182751.755
 30
0.0
 11
181164.324
 21
183201.755
 31
0.0
  0
LINE
  5
126
100
AcDbEntity
  8
2-1
  6
CONTINUOUS
 62
     3
100
AcDbLine
 10
181964.324
 20
182751.755
 30
0.0
 11
181964.324
 21
183201.755
 31
0.0
  0
LINE
  5
127
100
AcDbEntity
  8
2-1
  6
CONTINUOUS
 62
     3
100
AcDbLine
 10
181164.324
 20
183201.755
 30
0.0
 11
181964.324
 21
183201.755
 31
0.0
  0
LINE
  5
128
100
AcDbEntity
  8
2-1
  6
CONTINUOUS
 62
     1
100
AcDbLine
 10
181164.324
 20
182751.755
 30
0.0
 11
181964.324
 21
182751.755
 31
0.0
  0
LINE
  5
129
100
AcDbEntity
  8
2-1
  6
CONTINUOUS
 62
     3
100
AcDbLine
 10
183939.324
 20
183201.755
 30
0.0
 11
191489.324
 21
183201.755
 31
0.0
  0
LINE
  5
12A
100
AcDbEntity
  8
2-1
  6
CONTINUOUS
 62
     3
100
AcDbLine
 10
179189.324
 20
183201.755
 30
0.0
 11
171639.324
 21
183201.755
 31
0.0
  0
LINE
  5
12B
100
AcDbEntity
  8
2-1
  6
CONTINUOUS
 62
     3
100
AcDbLine
 10
170989.324
 20
183201.755
 30
0.0
 11
163439.324
 21
183201.755
 31
0.0
  0
LINE
  5
12C
100
AcDbEntity
  8
2-1
  6
CONTINUOUS
 62
     3
100
AcDbLine
 10
163439.324
 20
183201.755
 30
0.0
 11
163439.324
 21
182171.755
 31
0.0
  0
LINE
  5
12D
100
AcDbEntity
  8
2-1
  6
CONTINUOUS
 62
     3
100
AcDbLine
 10
192139.324
 20
183201.755
 30
0.0
 11
199364.324
 21
183201.755
 31
0.0
  0
LINE
  5
12E
100
AcDbEntity
  8
2-1
  6
CONTINUOUS
 62
     3
100
AcDbLine
 10
163114.324
 20
182171.755
 30
0.0
 11
163439.324
 21
182171.755
 31
0.0
  0
LINE
  5
12F
100
AcDbEntity
  8
2-1
  6
CONTINUOUS
 62
     3
100
AcDbLine
 10
163439.324
 20
180171.755
 30
0.0
 11
163114.324
 21
180171.755
 31
0.0
  0
LINE
  5
130
100
AcDbEntity
  8
2-1
  6
CONTINUOUS
 62
     3
100
AcDbLine
 10
163114.324
 20
182171.755
 30
0.0
 11
163114.324
 21
180171.755
 31
0.0
  0
LINE
  5
131
100
AcDbEntity
  8
2-1
  6
CONTINUOUS
 62
     3
100
AcDbLine
 10
163439.324
 20
180171.755
 30
0.0
 11
163439.324
 21
170301.755
 31
0.0
  0
LINE
  5
132
100
AcDbEntity
  8
2-1
  6
CONTINUOUS
 62
     1
100
AcDbLine
 10
200014.324
 20
179601.755
 30
0.0
 11
191489.324
 21
179601.755
 31
0.0
  0
LINE
  5
133
100
AcDbEntity
  8
2-1
  6
CONTINUOUS
 62
     1
100
AcDbLine
 10
200014.324
 20
182751.755
 30
0.0
 11
200014.324
 21
179601.755
 31
0.0
  0
LINE
  5
134
100
AcDbEntity
  8
2-1
  6
CONTINUOUS
 62
     1
100
AcDbLine
 10
191489.324
 20
182751.755
 30
0.0
 11
191489.324
 21
179601.755
 31
0.0
  0
LINE
  5
135
100
AcDbEntity
  8
2-1
  6
CONTINUOUS
 62
     1
100
AcDbLine
 10
200814.324
 20
186851.755
 30
0.0
 11
200014.324
 21
186851.755
 31
0.0
  0
LINE
  5
136
100
AcDbEntity
  8
2-1
  6
CONTINUOUS
 62
     1
100
AcDbLine
 10
200814.324
 20
189051.755
 30
0.0
 11
200014.324
 21
189051.755
 31
0.0
  0
LINE
  5
137
100
AcDbEntity
  8
2-1
  6
CONTINUOUS
 62
     1
100
AcDbLine
 10
200814.324
 20
189051.755
 30
0.0
 11
200814.324
 21
186851.755
 31
0.0
  0
LINE
  5
138
100
AcDbEntity
  8
2-1
  6
CONTINUOUS
 62
     1
100
AcDbLine
 10
191789.324
 20
181751.755
 30
0.0
 11
191489.324
 21
181751.755
 31
0.0
  0
LINE
  5
139
100
AcDbEntity
  8
2-1
  6
CONTINUOUS
 62
     1
100
AcDbLine
 10
191789.324
 20
182751.755
 30
0.0
 11
191789.324
 21
181751.755
 31
0.0
  0
LINE
  5
13A
100
AcDbEntity
  8
2-1
  6
CONTINUOUS
 62
     1
100
AcDbLine
 10
169014.324
 20
179601.755
 30
0.0
 11
179814.324
 21
179601.755
 31
0.0
  0
LINE
  5
13B
100
AcDbEntity
  8
2-1
  6
CONTINUOUS
 62
     1
100
AcDbLine
 10
179814.324
 20
182751.755
 30
0.0
 11
179814.324
 21
179601.755
 31
0.0
  0
LINE
  5
13C
100
AcDbEntity
  8
2-1
  6
CONTINUOUS
 62
     1
100
AcDbLine
 10
179514.324
 20
181751.755
 30
0.0
 11
179814.324
 21
181751.755
 31
0.0
  0
LINE
  5
13D
100
AcDbEntity
  8
2-1
  6
CONTINUOUS
 62
     1
100
AcDbLine
 10
179514.324
 20
182751.755
 30
0.0
 11
179514.324
 21
181751.755
 31
0.0
  0
LINE
  5
13E
100
AcDbEntity
  8
2-1
  6
CONTINUOUS
 62
     1
100
AcDbLine
 10
170914.324
 20
179601.755
 30
0.0
 11
170914.324
 21
181501.755
 31
0.0
  0
LINE
  5
13F
100
AcDbEntity
  8
2-1
  6
CONTINUOUS
 62
     1
100
AcDbLine
 10
169164.324
 20
179751.755
 30
0.0
 11
170314.324
 21
179751.755
 31
0.0
  0
LINE
  5
140
100
AcDbEntity
  8
2-1
  6
CONTINUOUS
 62
     1
100
AcDbLine
 10
170914.324
 20
180401.755
 30
0.0
 11
179814.324
 21
180401.755
 31
0.0
  0
LINE
  5
141
100
AcDbEntity
  8
2-1
  6
CONTINUOUS
 62
     1
100
AcDbLine
 10
169164.324
 20
180851.755
 30
0.0
 11
169814.324
 21
180851.755
 31
0.0
  0
LINE
  5
142
100
AcDbEntity
  8
2-1
  6
CONTINUOUS
 62
     1
100
AcDbLine
 10
169814.324
 20
181001.755
 30
0.0
 11
170414.324
 21
181001.755
 31
0.0
  0
LINE
  5
143
100
AcDbEntity
  8
2-1
  6
CONTINUOUS
 62
     1
100
AcDbLine
 10
164939.324
 20
181501.755
 30
0.0
 11
170914.324
 21
181501.755
 31
0.0
  0
ARC
  5
144
100
AcDbEntity
  8
2-1
  6
CONTINUOUS
 62
     1
100
AcDbCircle
 10
163439.324
 20
181501.755
 30
0.0
 40
1500.0
100
AcDbArc
 50
270.0
 51
0.0
  0
ARC
  5
145
100
AcDbEntity
  8
2-1
  6
CONTINUOUS
 62
     1
100
AcDbCircle
 10
163439.324
 20
181501.755
 30
0.0
 40
1800.0
100
AcDbArc
 50
270.0
 51
350.405932
  0
LINE
  5
146
100
AcDbEntity
  8
2-1
  6
CONTINUOUS
 62
     1
100
AcDbLine
 10
170414.324
 20
181001.755
 30
0.0
 11
170414.324
 21
180401.755
 31
0.0
  0
LINE
  5
147
100
AcDbEntity
  8
2-1
  6
CONTINUOUS
 62
     1
100
AcDbLine
 10
169814.324
 20
181001.755
 30
0.0
 11
169814.324
 21
180401.755
 31
0.0
  0
LINE
  5
148
100
AcDbEntity
  8
2-1
  6
CONTINUOUS
 62
     1
100
AcDbLine
 10
169164.324
 20
179751.755
 30
0.0
 11
169164.324
 21
180851.755
 31
0.0
  0
LINE
  5
149
100
AcDbEntity
  8
2-1
  6
CONTINUOUS
 62
     1
100
AcDbLine
 10
169014.324
 20
179601.755
 30
0.0
 11
169014.324
 21
181201.755
 31
0.0
  0
LINE
  5
14A
100
AcDbEntity
  8
2-1
  6
CONTINUOUS
 62
     1
100
AcDbLine
 10
169814.324
 20
180401.755
 30
0.0
 11
170414.324
 21
180401.755
 31
0.0
  0
LINE
  5
14B
100
AcDbEntity
  8
2-1
  6
CONTINUOUS
 62
     1
100
AcDbLine
 10
170314.324
 20
179751.755
 30
0.0
 11
170314.324
 21
180401.755
 31
0.0
  0
LINE
  5
14C
100
AcDbEntity
  8
2-1
  6
CONTINUOUS
 62
     1
100
AcDbLine
 10
165214.147935
 20
181201.755
 30
0.0
 11
169014.324
 21
181201.755
 31
0.0
  0
LINE
  5
14D
100
AcDbEntity
  8
2-1
  6
CONTINUOUS
 62
     1
100
AcDbLine
 10
160114.324
 20
191101.755
 30
0.0
 11
158614.324
 21
191101.755
 31
0.0
  0
LINE
  5
14E
100
AcDbEntity
  8
2-1
  6
CONTINUOUS
 62
     3
100
AcDbLine
 10
202034.324
 20
160901.755
 30
0.0
 11
202034.324
 21
160301.755
 31
0.0
  0
LINE
  5
14F
100
AcDbEntity
  8
2-1
  6
CONTINUOUS
 62
     3
100
AcDbLine
 10
202034.324
 20
160901.755
 30
0.0
 11
201384.324
 21
160901.755
 31
0.0
  0
LINE
  5
150
100
AcDbEntity
  8
2-1
  6
CONTINUOUS
 62
     3
100
AcDbLine
 10
202034.324
 20
160301.755
 30
0.0
 11
201384.324
 21
160301.755
 31
0.0
  0
LINE
  5
151
100
AcDbEntity
  8
2-1
  6
CONTINUOUS
 62
     3
100
AcDbLine
 10
202034.324
 20
165151.755
 30
0.0
 11
202034.324
 21
164551.755
 31
0.0
  0
LINE
  5
152
100
AcDbEntity
  8
2-1
  6
CONTINUOUS
 62
     3
100
AcDbLine
 10
202034.324
 20
165151.755
 30
0.0
 11
201384.324
 21
165151.755
 31
0.0
  0
LINE
  5
153
100
AcDbEntity
  8
2-1
  6
CONTINUOUS
 62
     3
100
AcDbLine
 10
202034.324
 20
164551.755
 30
0.0
 11
201384.324
 21
164551.755
 31
0.0
  0
LINE
  5
154
100
AcDbEntity
  8
2-1
  6
CONTINUOUS
 62
     3
100
AcDbLine
 10
202034.324
 20
169401.755
 30
0.0
 11
202034.324
 21
168801.755
 31
0.0
  0
LINE
  5
155
100
AcDbEntity
  8
2-1
  6
CONTINUOUS
 62
     3
100
AcDbLine
 10
202034.324
 20
169401.755
 30
0.0
 11
201384.324
 21
169401.755
 31
0.0
  0
LINE
  5
156
100
AcDbEntity
  8
2-1
  6
CONTINUOUS
 62
     3
100
AcDbLine
 10
202034.324
 20
168801.755
 30
0.0
 11
201384.324
 21
168801.755
 31
0.0
  0
LINE
  5
157
100
AcDbEntity
  8
2-1
  6
CONTINUOUS
 62
     3
100
AcDbLine
 10
202034.324
 20
173651.755
 30
0.0
 11
202034.324
 21
173051.755
 31
0.0
  0
LINE
  5
158
100
AcDbEntity
  8
2-1
  6
CONTINUOUS
 62
     3
100
AcDbLine
 10
202034.324
 20
173651.755
 30
0.0
 11
201384.324
 21
173651.755
 31
0.0
  0
LINE
  5
159
100
AcDbEntity
  8
2-1
  6
CONTINUOUS
 62
     3
100
AcDbLine
 10
202034.324
 20
173051.755
 30
0.0
 11
201384.324
 21
173051.755
 31
0.0
  0
LINE
  5
15A
100
AcDbEntity
  8
2-1
  6
CONTINUOUS
 62
     3
100
AcDbLine
 10
202034.324
 20
177901.755
 30
0.0
 11
202034.324
 21
177301.755
 31
0.0
  0
LINE
  5
15B
100
AcDbEntity
  8
2-1
  6
CONTINUOUS
 62
     3
100
AcDbLine
 10
202034.324
 20
177901.755
 30
0.0
 11
201384.324
 21
177901.755
 31
0.0
  0
LINE
  5
15C
100
AcDbEntity
  8
2-1
  6
CONTINUOUS
 62
     3
100
AcDbLine
 10
202034.324
 20
177301.755
 30
0.0
 11
201384.324
 21
177301.755
 31
0.0
  0
LINE
  5
15D
100
AcDbEntity
  8
2-1
  6
CONTINUOUS
 62
     3
100
AcDbLine
 10
201384.324
 20
177301.755
 30
0.0
 11
201384.324
 21
173651.755
 31
0.0
  0
LINE
  5
15E
100
AcDbEntity
  8
2-1
  6
CONTINUOUS
 62
     3
100
AcDbLine
 10
201384.324
 20
173051.755
 30
0.0
 11
201384.324
 21
169401.755
 31
0.0
  0
LINE
  5
15F
100
AcDbEntity
  8
2-1
  6
CONTINUOUS
 62
     3
100
AcDbLine
 10
201384.324
 20
168801.755
 30
0.0
 11
201384.324
 21
165151.755
 31
0.0
  0
LINE
  5
160
100
AcDbEntity
  8
2-1
  6
CONTINUOUS
 62
     3
100
AcDbLine
 10
201384.324
 20
164551.755
 30
0.0
 11
201384.324
 21
160901.755
 31
0.0
  0
LINE
  5
161
100
AcDbEntity
  8
2-1
  6
CONTINUOUS
 62
     3
100
AcDbLine
 10
201384.324
 20
160301.755
 30
0.0
 11
201384.324
 21
156301.755
 31
0.0
  0
LINE
  5
162
100
AcDbEntity
  8
2-1
  6
CONTINUOUS
 62
     3
100
AcDbLine
 10
202034.324
 20
156301.755
 30
0.0
 11
201384.324
 21
156301.755
 31
0.0
  0
LINE
  5
163
100
AcDbEntity
  8
2-1
  6
CONTINUOUS
 62
     3
100
AcDbLine
 10
202034.324
 20
155601.755
 30
0.0
 11
201384.324
 21
155601.755
 31
0.0
  0
LINE
  5
164
100
AcDbEntity
  8
2-1
  6
CONTINUOUS
 62
     3
100
AcDbLine
 10
202034.324
 20
156301.755
 30
0.0
 11
202034.324
 21
155601.755
 31
0.0
  0
LINE
  5
165
100
AcDbEntity
  8
2-1
  6
CONTINUOUS
 62
     3
100
AcDbLine
 10
201384.324
 20
156101.755
 30
0.0
 11
201384.324
 21
155601.755
 31
0.0
  0
LINE
  5
166
100
AcDbEntity
  8
2-1
  6
CONTINUOUS
 62
     3
100
AcDbLine
 10
201384.324
 20
156101.755
 30
0.0
 11
193214.324
 21
156101.755
 31
0.0
  0
LINE
  5
167
100
AcDbEntity
  8
2-1
  6
CONTINUOUS
 62
     3
100
AcDbLine
 10
191214.324
 20
160301.755
 30
0.0
 11
191214.324
 21
157401.755
 31
0.0
  0
LINE
  5
168
100
AcDbEntity
  8
2-1
  6
CONTINUOUS
 62
     3
100
AcDbLine
 10
190564.324
 20
156301.755
 30
0.0
 11
190914.324
 21
156301.755
 31
0.0
  0
LINE
  5
169
100
AcDbEntity
  8
2-1
  6
CONTINUOUS
 62
     3
100
AcDbLine
 10
190564.324
 20
155601.755
 30
0.0
 11
191214.324
 21
155601.755
 31
0.0
  0
LINE
  5
16A
100
AcDbEntity
  8
2-1
  6
CONTINUOUS
 62
     3
100
AcDbLine
 10
190564.324
 20
156301.755
 30
0.0
 11
190564.324
 21
155601.755
 31
0.0
  0
LINE
  5
16B
100
AcDbEntity
  8
2-1
  6
CONTINUOUS
 62
     3
100
AcDbLine
 10
191214.324
 20
155601.755
 30
0.0
 11
191214.324
 21
154601.755
 31
0.0
  0
LINE
  5
16C
100
AcDbEntity
  8
2-1
  6
CONTINUOUS
 62
     3
100
AcDbLine
 10
190564.324
 20
160901.755
 30
0.0
 11
190564.324
 21
160301.755
 31
0.0
  0
LINE
  5
16D
100
AcDbEntity
  8
2-1
  6
CONTINUOUS
 62
     3
100
AcDbLine
 10
190564.324
 20
160901.755
 30
0.0
 11
191214.324
 21
160901.755
 31
0.0
  0
LINE
  5
16E
100
AcDbEntity
  8
2-1
  6
CONTINUOUS
 62
     3
100
AcDbLine
 10
190564.324
 20
160301.755
 30
0.0
 11
191214.324
 21
160301.755
 31
0.0
  0
LINE
  5
16F
100
AcDbEntity
  8
2-1
  6
CONTINUOUS
 62
     3
100
AcDbLine
 10
190564.324
 20
165151.755
 30
0.0
 11
190564.324
 21
164551.755
 31
0.0
  0
LINE
  5
170
100
AcDbEntity
  8
2-1
  6
CONTINUOUS
 62
     3
100
AcDbLine
 10
190564.324
 20
165151.755
 30
0.0
 11
191214.324
 21
165151.755
 31
0.0
  0
LINE
  5
171
100
AcDbEntity
  8
2-1
  6
CONTINUOUS
 62
     3
100
AcDbLine
 10
190564.324
 20
164551.755
 30
0.0
 11
191214.324
 21
164551.755
 31
0.0
  0
LINE
  5
172
100
AcDbEntity
  8
2-1
  6
CONTINUOUS
 62
     3
100
AcDbLine
 10
190564.324
 20
169401.755
 30
0.0
 11
190564.324
 21
168801.755
 31
0.0
  0
LINE
  5
173
100
AcDbEntity
  8
2-1
  6
CONTINUOUS
 62
     3
100
AcDbLine
 10
190564.324
 20
169401.755
 30
0.0
 11
191214.324
 21
169401.755
 31
0.0
  0
LINE
  5
174
100
AcDbEntity
  8
2-1
  6
CONTINUOUS
 62
     3
100
AcDbLine
 10
190564.324
 20
168801.755
 30
0.0
 11
191214.324
 21
168801.755
 31
0.0
  0
LINE
  5
175
100
AcDbEntity
  8
2-1
  6
CONTINUOUS
 62
     3
100
AcDbLine
 10
190564.324
 20
173651.755
 30
0.0
 11
190564.324
 21
173051.755
 31
0.0
  0
LINE
  5
176
100
AcDbEntity
  8
2-1
  6
CONTINUOUS
 62
     3
100
AcDbLine
 10
190564.324
 20
173651.755
 30
0.0
 11
191214.324
 21
173651.755
 31
0.0
  0
LINE
  5
177
100
AcDbEntity
  8
2-1
  6
CONTINUOUS
 62
     3
100
AcDbLine
 10
190564.324
 20
173051.755
 30
0.0
 11
191214.324
 21
173051.755
 31
0.0
  0
LINE
  5
178
100
AcDbEntity
  8
2-1
  6
CONTINUOUS
 62
     3
100
AcDbLine
 10
190564.324
 20
177901.755
 30
0.0
 11
190564.324
 21
177301.755
 31
0.0
  0
LINE
  5
179
100
AcDbEntity
  8
2-1
  6
CONTINUOUS
 62
     3
100
AcDbLine
 10
190564.324
 20
177901.755
 30
0.0
 11
191214.324
 21
177901.755
 31
0.0
  0
LINE
  5
17A
100
AcDbEntity
  8
2-1
  6
CONTINUOUS
 62
     3
100
AcDbLine
 10
190564.324
 20
177301.755
 30
0.0
 11
191214.324
 21
177301.755
 31
0.0
  0
LINE
  5
17B
100
AcDbEntity
  8
2-1
  6
CONTINUOUS
 62
     3
100
AcDbLine
 10
191214.324
 20
177301.755
 30
0.0
 11
191214.324
 21
173651.755
 31
0.0
  0
LINE
  5
17C
100
AcDbEntity
  8
2-1
  6
CONTINUOUS
 62
     3
100
AcDbLine
 10
191214.324
 20
173051.755
 30
0.0
 11
191214.324
 21
169401.755
 31
0.0
  0
LINE
  5
17D
100
AcDbEntity
  8
2-1
  6
CONTINUOUS
 62
     3
100
AcDbLine
 10
191214.324
 20
168801.755
 30
0.0
 11
191214.324
 21
165151.755
 31
0.0
  0
LINE
  5
17E
100
AcDbEntity
  8
2-1
  6
CONTINUOUS
 62
     3
100
AcDbLine
 10
191214.324
 20
164551.755
 30
0.0
 11
191214.324
 21
160901.755
 31
0.0
  0
LINE
  5
17F
100
AcDbEntity
  8
2-1
  6
CONTINUOUS
 62
     3
100
AcDbLine
 10
191214.324
 20
177601.755
 30
0.0
 11
191214.324
 21
177901.755
 31
0.0
  0
LINE
  5
180
100
AcDbEntity
  8
2-1
  6
CONTINUOUS
 62
     3
100
AcDbLine
 10
191214.324
 20
177601.755
 30
0.0
 11
201384.324
 21
177601.755
 31
0.0
  0
LINE
  5
181
100
AcDbEntity
  8
2-1
  6
CONTINUOUS
 62
     3
100
AcDbLine
 10
201384.324
 20
177901.755
 30
0.0
 11
201384.324
 21
177601.755
 31
0.0
  0
LINE
  5
182
100
AcDbEntity
  8
2-1
  6
CONTINUOUS
 62
     3
100
AcDbLine
 10
184864.324
 20
160901.755
 30
0.0
 11
184864.324
 21
160601.755
 31
0.0
  0
LINE
  5
183
100
AcDbEntity
  8
2-1
  6
CONTINUOUS
 62
     3
100
AcDbLine
 10
184864.324
 20
160901.755
 30
0.0
 11
184214.324
 21
160901.755
 31
0.0
  0
LINE
  5
184
100
AcDbEntity
  8
2-1
  6
CONTINUOUS
 62
     3
100
AcDbLine
 10
184214.324
 20
160901.755
 30
0.0
 11
184214.324
 21
159601.755
 31
0.0
  0
LINE
  5
185
100
AcDbEntity
  8
2-1
  6
CONTINUOUS
 62
     3
100
AcDbLine
 10
184214.324
 20
159601.755
 30
0.0
 11
185414.324
 21
159601.755
 31
0.0
  0
LINE
  5
186
100
AcDbEntity
  8
2-1
  6
CONTINUOUS
 62
     3
100
AcDbLine
 10
185414.324
 20
159601.755
 30
0.0
 11
185414.324
 21
160601.755
 31
0.0
  0
LINE
  5
187
100
AcDbEntity
  8
2-1
  6
CONTINUOUS
 62
     1
100
AcDbLine
 10
190564.324
 20
160601.755
 30
0.0
 11
185414.324
 21
160601.755
 31
0.0
  0
LINE
  5
188
100
AcDbEntity
  8
2-1
  6
CONTINUOUS
 62
     1
100
AcDbLine
 10
184214.324
 20
159601.755
 30
0.0
 11
184214.324
 21
156401.755
 31
0.0
  0
LINE
  5
189
100
AcDbEntity
  8
2-1
  6
CONTINUOUS
 62
     3
100
AcDbLine
 10
184864.324
 20
155801.755
 30
0.0
 11
184864.324
 21
156401.755
 31
0.0
  0
LINE
  5
18A
100
AcDbEntity
  8
2-1
  6
CONTINUOUS
 62
     3
100
AcDbLine
 10
184864.324
 20
155801.755
 30
0.0
 11
184214.324
 21
155801.755
 31
0.0
  0
LINE
  5
18B
100
AcDbEntity
  8
2-1
  6
CONTINUOUS
 62
     3
100
AcDbLine
 10
184864.324
 20
156401.755
 30
0.0
 11
184214.324
 21
156401.755
 31
0.0
  0
LINE
  5
18C
100
AcDbEntity
  8
2-1
  6
CONTINUOUS
 62
     3
100
AcDbLine
 10
184214.324
 20
155801.755
 30
0.0
 11
184214.324
 21
156401.755
 31
0.0
  0
LINE
  5
18D
100
AcDbEntity
  8
2-1
  6
CONTINUOUS
 62
     1
100
AcDbLine
 10
184864.324
 20
155801.755
 30
0.0
 11
190564.324
 21
155801.755
 31
0.0
  0
LINE
  5
18E
100
AcDbEntity
  8
2-1
  6
CONTINUOUS
 62
     3
100
AcDbLine
 10
185414.324
 20
160601.755
 30
0.0
 11
184864.324
 21
160601.755
 31
0.0
  0
LINE
  5
18F
100
AcDbEntity
  8
2-1
  6
CONTINUOUS
 62
     3
100
AcDbLine
 10
190914.324
 20
156301.755
 30
0.0
 11
190914.324
 21
157401.755
 31
0.0
  0
LINE
  5
190
100
AcDbEntity
  8
2-1
  6
CONTINUOUS
 62
     3
100
AcDbLine
 10
190914.324
 20
157401.755
 30
0.0
 11
191214.324
 21
157401.755
 31
0.0
  0
LINE
  5
191
100
AcDbEntity
  8
2-1
  6
CONTINUOUS
 62
     3
100
AcDbLine
 10
193214.324
 20
154601.755
 30
0.0
 11
193214.324
 21
156101.755
 31
0.0
  0
LINE
  5
192
100
AcDbEntity
  8
2-1
  6
CONTINUOUS
 62
     3
100
AcDbLine
 10
197937.324
 20
155301.755
 30
0.0
 11
197937.324
 21
154601.755
 31
0.0
  0
LINE
  5
193
100
AcDbEntity
  8
2-1
  6
CONTINUOUS
 62
     3
100
AcDbLine
 10
195794.324
 20
154601.755
 30
0.0
 11
195794.324
 21
155301.755
 31
0.0
  0
LINE
  5
194
100
AcDbEntity
  8
2-1
  6
CONTINUOUS
 62
     3
100
AcDbLine
 10
197937.324
 20
155301.755
 30
0.0
 11
195794.324
 21
155301.755
 31
0.0
  0
LINE
  5
195
100
AcDbEntity
  8
2-1
  6
CONTINUOUS
 62
     3
100
AcDbLine
 10
186279.324
 20
155301.755
 30
0.0
 11
186279.324
 21
154601.755
 31
0.0
  0
LINE
  5
196
100
AcDbEntity
  8
2-1
  6
CONTINUOUS
 62
     3
100
AcDbLine
 10
188434.324
 20
154601.755
 30
0.0
 11
188434.324
 21
155301.755
 31
0.0
  0
LINE
  5
197
100
AcDbEntity
  8
2-1
  6
CONTINUOUS
 62
     3
100
AcDbLine
 10
188434.324
 20
155301.755
 30
0.0
 11
186279.324
 21
155301.755
 31
0.0
  0
LINE
  5
198
100
AcDbEntity
  8
2-1
  6
CONTINUOUS
 62
     1
100
AcDbLine
 10
202884.324
 20
155601.755
 30
0.0
 11
202884.324
 21
160901.755
 31
0.0
  0
LINE
  5
199
100
AcDbEntity
  8
2-1
  6
CONTINUOUS
 62
     1
100
AcDbLine
 10
202034.324
 20
160901.755
 30
0.0
 11
202884.324
 21
160901.755
 31
0.0
  0
LINE
  5
19A
100
AcDbEntity
  8
2-1
  6
CONTINUOUS
 62
     1
100
AcDbLine
 10
202034.324
 20
155601.755
 30
0.0
 11
202884.324
 21
155601.755
 31
0.0
  0
LINE
  5
19B
100
AcDbEntity
  8
2-1
  6
CONTINUOUS
 62
     1
100
AcDbLine
 10
179839.324
 20
143851.755
 30
0.0
 11
183689.324
 21
143851.755
 31
0.0
  0
LINE
  5
19C
100
AcDbEntity
  8
2-1
  6
CONTINUOUS
 62
     3
100
AcDbLine
 10
135514.324
 20
154601.755
 30
0.0
 11
131914.324
 21
154601.755
 31
0.0
  0
LINE
  5
19D
100
AcDbEntity
  8
2-1
  6
CONTINUOUS
 62
     3
100
AcDbLine
 10
131514.324
 20
154601.755
 30
0.0
 11
127914.324
 21
154601.755
 31
0.0
  0
LINE
  5
19E
100
AcDbEntity
  8
2-1
  6
CONTINUOUS
 62
     3
100
AcDbLine
 10
127514.324
 20
154601.755
 30
0.0
 11
123914.324
 21
154601.755
 31
0.0
  0
LINE
  5
19F
100
AcDbEntity
  8
2-1
  6
CONTINUOUS
 62
     3
100
AcDbLine
 10
123514.324
 20
154601.755
 30
0.0
 11
119914.324
 21
154601.755
 31
0.0
  0
LINE
  5
1A0
100
AcDbEntity
  8
2-1
  6
CONTINUOUS
 62
     3
100
AcDbLine
 10
119514.324
 20
154601.755
 30
0.0
 11
115914.324
 21
154601.755
 31
0.0
  0
LINE
  5
1A1
100
AcDbEntity
  8
2-1
  6
CONTINUOUS
 62
     3
100
AcDbLine
 10
115414.324
 20
118801.755
 30
0.0
 11
115414.324
 21
122401.755
 31
0.0
  0
LINE
  5
1A2
100
AcDbEntity
  8
2-1
  6
CONTINUOUS
 62
     3
100
AcDbLine
 10
115714.324
 20
122801.755
 30
0.0
 11
115714.324
 21
126401.755
 31
0.0
  0
LINE
  5
1A3
100
AcDbEntity
  8
2-1
  6
CONTINUOUS
 62
     3
100
AcDbLine
 10
115714.324
 20
126801.755
 30
0.0
 11
115714.324
 21
130401.755
 31
0.0
  0
LINE
  5
1A4
100
AcDbEntity
  8
2-1
  6
CONTINUOUS
 62
     3
100
AcDbLine
 10
115714.324
 20
130801.755
 30
0.0
 11
115714.324
 21
134401.755
 31
0.0
  0
LINE
  5
1A5
100
AcDbEntity
  8
2-1
  6
CONTINUOUS
 62
     3
100
AcDbLine
 10
115714.324
 20
134801.755
 30
0.0
 11
115714.324
 21
138401.755
 31
0.0
  0
LINE
  5
1A6
100
AcDbEntity
  8
2-1
  6
CONTINUOUS
 62
     3
100
AcDbLine
 10
115714.324
 20
138801.755
 30
0.0
 11
115714.324
 21
142401.755
 31
0.0
  0
LINE
  5
1A7
100
AcDbEntity
  8
2-1
  6
CONTINUOUS
 62
     3
100
AcDbLine
 10
115714.324
 20
142801.755
 30
0.0
 11
115714.324
 21
146401.755
 31
0.0
  0
LINE
  5
1A8
100
AcDbEntity
  8
2-1
  6
CONTINUOUS
 62
     3
100
AcDbLine
 10
115714.324
 20
146801.755
 30
0.0
 11
115714.324
 21
150401.755
 31
0.0
  0
LINE
  5
1A9
100
AcDbEntity
  8
2-1
  6
CONTINUOUS
 62
     3
100
AcDbLine
 10
140714.324
 20
149601.755
 30
0.0
 11
139714.324
 21
149601.755
 31
0.0
  0
LINE
  5
1AA
100
AcDbEntity
  8
2-1
  6
CONTINUOUS
 62
     3
100
AcDbLine
 10
140714.324
 20
147601.755
 30
0.0
 11
139714.324
 21
147601.755
 31
0.0
  0
LINE
  5
1AB
100
AcDbEntity
  8
2-1
  6
CONTINUOUS
 62
     1
100
AcDbLine
 10
136714.324
 20
155601.755
 30
0.0
 11
136714.324
 21
150651.755
 31
0.0
  0
LINE
  5
1AC
100
AcDbEntity
  8
2-1
  6
CONTINUOUS
 62
     3
100
AcDbLine
 10
142214.324
 20
149601.755
 30
0.0
 11
142214.324
 21
147601.755
 31
0.0
  0
LINE
  5
1AD
100
AcDbEntity
  8
2-1
  6
CONTINUOUS
 62
     3
100
AcDbLine
 10
152814.324
 20
149601.755
 30
0.0
 11
152814.324
 21
147601.755
 31
0.0
  0
LINE
  5
1AE
100
AcDbEntity
  8
2-1
  6
CONTINUOUS
 62
     3
100
AcDbLine
 10
115114.324
 20
150801.755
 30
0.0
 11
115114.324
 21
150401.755
 31
0.0
  0
LINE
  5
1AF
100
AcDbEntity
  8
2-1
  6
CONTINUOUS
 62
     3
100
AcDbLine
 10
115114.324
 20
150801.755
 30
0.0
 11
115414.324
 21
150801.755
 31
0.0
  0
LINE
  5
1B0
100
AcDbEntity
  8
2-1
  6
CONTINUOUS
 62
     3
100
AcDbLine
 10
115114.324
 20
150401.755
 30
0.0
 11
115714.324
 21
150401.755
 31
0.0
  0
LINE
  5
1B1
100
AcDbEntity
  8
2-1
  6
CONTINUOUS
 62
     3
100
AcDbLine
 10
115114.324
 20
146801.755
 30
0.0
 11
115114.324
 21
146401.755
 31
0.0
  0
LINE
  5
1B2
100
AcDbEntity
  8
2-1
  6
CONTINUOUS
 62
     3
100
AcDbLine
 10
115114.324
 20
146801.755
 30
0.0
 11
115714.324
 21
146801.755
 31
0.0
  0
LINE
  5
1B3
100
AcDbEntity
  8
2-1
  6
CONTINUOUS
 62
     3
100
AcDbLine
 10
115114.324
 20
146401.755
 30
0.0
 11
115714.324
 21
146401.755
 31
0.0
  0
LINE
  5
1B4
100
AcDbEntity
  8
2-1
  6
CONTINUOUS
 62
     3
100
AcDbLine
 10
115114.324
 20
142801.755
 30
0.0
 11
115114.324
 21
142401.755
 31
0.0
  0
LINE
  5
1B5
100
AcDbEntity
  8
2-1
  6
CONTINUOUS
 62
     3
100
AcDbLine
 10
115114.324
 20
142801.755
 30
0.0
 11
115714.324
 21
142801.755
 31
0.0
  0
LINE
  5
1B6
100
AcDbEntity
  8
2-1
  6
CONTINUOUS
 62
     3
100
AcDbLine
 10
115114.324
 20
142401.755
 30
0.0
 11
115714.324
 21
142401.755
 31
0.0
  0
LINE
  5
1B7
100
AcDbEntity
  8
2-1
  6
CONTINUOUS
 62
     3
100
AcDbLine
 10
115114.324
 20
138801.755
 30
0.0
 11
115114.324
 21
138401.755
 31
0.0
  0
LINE
  5
1B8
100
AcDbEntity
  8
2-1
  6
CONTINUOUS
 62
     3
100
AcDbLine
 10
115114.324
 20
138801.755
 30
0.0
 11
115714.324
 21
138801.755
 31
0.0
  0
LINE
  5
1B9
100
AcDbEntity
  8
2-1
  6
CONTINUOUS
 62
     3
100
AcDbLine
 10
115114.324
 20
138401.755
 30
0.0
 11
115714.324
 21
138401.755
 31
0.0
  0
LINE
  5
1BA
100
AcDbEntity
  8
2-1
  6
CONTINUOUS
 62
     3
100
AcDbLine
 10
115114.324
 20
134801.755
 30
0.0
 11
115114.324
 21
134401.755
 31
0.0
  0
LINE
  5
1BB
100
AcDbEntity
  8
2-1
  6
CONTINUOUS
 62
     3
100
AcDbLine
 10
115114.324
 20
134801.755
 30
0.0
 11
115714.324
 21
134801.755
 31
0.0
  0
LINE
  5
1BC
100
AcDbEntity
  8
2-1
  6
CONTINUOUS
 62
     3
100
AcDbLine
 10
115114.324
 20
134401.755
 30
0.0
 11
115714.324
 21
134401.755
 31
0.0
  0
LINE
  5
1BD
100
AcDbEntity
  8
2-1
  6
CONTINUOUS
 62
     3
100
AcDbLine
 10
115114.324
 20
130801.755
 30
0.0
 11
115114.324
 21
130401.755
 31
0.0
  0
LINE
  5
1BE
100
AcDbEntity
  8
2-1
  6
CONTINUOUS
 62
     3
100
AcDbLine
 10
115114.324
 20
130801.755
 30
0.0
 11
115714.324
 21
130801.755
 31
0.0
  0
LINE
  5
1BF
100
AcDbEntity
  8
2-1
  6
CONTINUOUS
 62
     3
100
AcDbLine
 10
115114.324
 20
130401.755
 30
0.0
 11
115714.324
 21
130401.755
 31
0.0
  0
LINE
  5
1C0
100
AcDbEntity
  8
2-1
  6
CONTINUOUS
 62
     3
100
AcDbLine
 10
115114.324
 20
126801.755
 30
0.0
 11
115114.324
 21
126401.755
 31
0.0
  0
LINE
  5
1C1
100
AcDbEntity
  8
2-1
  6
CONTINUOUS
 62
     3
100
AcDbLine
 10
115114.324
 20
126801.755
 30
0.0
 11
115714.324
 21
126801.755
 31
0.0
  0
LINE
  5
1C2
100
AcDbEntity
  8
2-1
  6
CONTINUOUS
 62
     3
100
AcDbLine
 10
115114.324
 20
126401.755
 30
0.0
 11
115714.324
 21
126401.755
 31
0.0
  0
LINE
  5
1C3
100
AcDbEntity
  8
2-1
  6
CONTINUOUS
 62
     3
100
AcDbLine
 10
115114.324
 20
122801.755
 30
0.0
 11
115114.324
 21
122401.755
 31
0.0
  0
LINE
  5
1C4
100
AcDbEntity
  8
2-1
  6
CONTINUOUS
 62
     3
100
AcDbLine
 10
115114.324
 20
122801.755
 30
0.0
 11
115714.324
 21
122801.755
 31
0.0
  0
LINE
  5
1C5
100
AcDbEntity
  8
2-1
  6
CONTINUOUS
 62
     3
100
AcDbLine
 10
115114.324
 20
122401.755
 30
0.0
 11
115414.324
 21
122401.755
 31
0.0
  0
LINE
  5
1C6
100
AcDbEntity
  8
2-1
  6
CONTINUOUS
 62
     3
100
AcDbLine
 10
115114.324
 20
118801.755
 30
0.0
 11
115114.324
 21
118401.755
 31
0.0
  0
LINE
  5
1C7
100
AcDbEntity
  8
2-1
  6
CONTINUOUS
 62
     3
100
AcDbLine
 10
115114.324
 20
118801.755
 30
0.0
 11
115414.324
 21
118801.755
 31
0.0
  0
LINE
  5
1C8
100
AcDbEntity
  8
2-1
  6
CONTINUOUS
 62
     3
100
AcDbLine
 10
115114.324
 20
118401.755
 30
0.0
 11
115914.324
 21
118401.755
 31
0.0
  0
LINE
  5
1C9
100
AcDbEntity
  8
2-1
  6
CONTINUOUS
 62
     3
100
AcDbLine
 10
115114.324
 20
154801.755
 30
0.0
 11
115114.324
 21
154401.755
 31
0.0
  0
LINE
  5
1CA
100
AcDbEntity
  8
2-1
  6
CONTINUOUS
 62
     3
100
AcDbLine
 10
115114.324
 20
154801.755
 30
0.0
 11
115914.324
 21
154801.755
 31
0.0
  0
LINE
  5
1CB
100
AcDbEntity
  8
2-1
  6
CONTINUOUS
 62
     3
100
AcDbLine
 10
115114.324
 20
154401.755
 30
0.0
 11
115414.324
 21
154401.755
 31
0.0
  0
LINE
  5
1CC
100
AcDbEntity
  8
2-1
  6
CONTINUOUS
 62
     3
100
AcDbLine
 10
115914.324
 20
154801.755
 30
0.0
 11
115914.324
 21
154601.755
 31
0.0
  0
LINE
  5
1CD
100
AcDbEntity
  8
2-1
  6
CONTINUOUS
 62
     3
100
AcDbLine
 10
136014.324
 20
118801.755
 30
0.0
 11
136014.324
 21
122401.755
 31
0.0
  0
LINE
  5
1CE
100
AcDbEntity
  8
2-1
  6
CONTINUOUS
 62
     3
100
AcDbLine
 10
135714.324
 20
122801.755
 30
0.0
 11
135714.324
 21
126401.755
 31
0.0
  0
LINE
  5
1CF
100
AcDbEntity
  8
2-1
  6
CONTINUOUS
 62
     3
100
AcDbLine
 10
135714.324
 20
126801.755
 30
0.0
 11
135714.324
 21
130401.755
 31
0.0
  0
LINE
  5
1D0
100
AcDbEntity
  8
2-1
  6
CONTINUOUS
 62
     3
100
AcDbLine
 10
135714.324
 20
130801.755
 30
0.0
 11
135714.324
 21
134401.755
 31
0.0
  0
LINE
  5
1D1
100
AcDbEntity
  8
2-1
  6
CONTINUOUS
 62
     3
100
AcDbLine
 10
135714.324
 20
134801.755
 30
0.0
 11
135714.324
 21
138401.755
 31
0.0
  0
LINE
  5
1D2
100
AcDbEntity
  8
2-1
  6
CONTINUOUS
 62
     3
100
AcDbLine
 10
135714.324
 20
138801.755
 30
0.0
 11
135714.324
 21
142401.755
 31
0.0
  0
LINE
  5
1D3
100
AcDbEntity
  8
2-1
  6
CONTINUOUS
 62
     3
100
AcDbLine
 10
135714.324
 20
142801.755
 30
0.0
 11
135714.324
 21
146401.755
 31
0.0
  0
LINE
  5
1D4
100
AcDbEntity
  8
2-1
  6
CONTINUOUS
 62
     3
100
AcDbLine
 10
135714.324
 20
146801.755
 30
0.0
 11
135714.324
 21
150401.755
 31
0.0
  0
LINE
  5
1D5
100
AcDbEntity
  8
2-1
  6
CONTINUOUS
 62
     3
100
AcDbLine
 10
136314.324
 20
150801.755
 30
0.0
 11
136314.324
 21
150401.755
 31
0.0
  0
LINE
  5
1D6
100
AcDbEntity
  8
2-1
  6
CONTINUOUS
 62
     3
100
AcDbLine
 10
136314.324
 20
150801.755
 30
0.0
 11
136014.324
 21
150801.755
 31
0.0
  0
LINE
  5
1D7
100
AcDbEntity
  8
2-1
  6
CONTINUOUS
 62
     3
100
AcDbLine
 10
136314.324
 20
150401.755
 30
0.0
 11
135714.324
 21
150401.755
 31
0.0
  0
LINE
  5
1D8
100
AcDbEntity
  8
2-1
  6
CONTINUOUS
 62
     3
100
AcDbLine
 10
136314.324
 20
146801.755
 30
0.0
 11
136314.324
 21
146401.755
 31
0.0
  0
LINE
  5
1D9
100
AcDbEntity
  8
2-1
  6
CONTINUOUS
 62
     3
100
AcDbLine
 10
136314.324
 20
146801.755
 30
0.0
 11
135714.324
 21
146801.755
 31
0.0
  0
LINE
  5
1DA
100
AcDbEntity
  8
2-1
  6
CONTINUOUS
 62
     3
100
AcDbLine
 10
136314.324
 20
146401.755
 30
0.0
 11
135714.324
 21
146401.755
 31
0.0
  0
LINE
  5
1DB
100
AcDbEntity
  8
2-1
  6
CONTINUOUS
 62
     3
100
AcDbLine
 10
136314.324
 20
142801.755
 30
0.0
 11
136314.324
 21
142401.755
 31
0.0
  0
LINE
  5
1DC
100
AcDbEntity
  8
2-1
  6
CONTINUOUS
 62
     3
100
AcDbLine
 10
136314.324
 20
142801.755
 30
0.0
 11
135714.324
 21
142801.755
 31
0.0
  0
LINE
  5
1DD
100
AcDbEntity
  8
2-1
  6
CONTINUOUS
 62
     3
100
AcDbLine
 10
136314.324
 20
142401.755
 30
0.0
 11
135714.324
 21
142401.755
 31
0.0
  0
LINE
  5
1DE
100
AcDbEntity
  8
2-1
  6
CONTINUOUS
 62
     3
100
AcDbLine
 10
136314.324
 20
138801.755
 30
0.0
 11
136314.324
 21
138401.755
 31
0.0
  0
LINE
  5
1DF
100
AcDbEntity
  8
2-1
  6
CONTINUOUS
 62
     3
100
AcDbLine
 10
136314.324
 20
138801.755
 30
0.0
 11
135714.324
 21
138801.755
 31
0.0
  0
LINE
  5
1E0
100
AcDbEntity
  8
2-1
  6
CONTINUOUS
 62
     3
100
AcDbLine
 10
136314.324
 20
138401.755
 30
0.0
 11
135714.324
 21
138401.755
 31
0.0
  0
LINE
  5
1E1
100
AcDbEntity
  8
2-1
  6
CONTINUOUS
 62
     3
100
AcDbLine
 10
136314.324
 20
134801.755
 30
0.0
 11
136314.324
 21
134401.755
 31
0.0
  0
LINE
  5
1E2
100
AcDbEntity
  8
2-1
  6
CONTINUOUS
 62
     3
100
AcDbLine
 10
136314.324
 20
134801.755
 30
0.0
 11
135714.324
 21
134801.755
 31
0.0
  0
LINE
  5
1E3
100
AcDbEntity
  8
2-1
  6
CONTINUOUS
 62
     3
100
AcDbLine
 10
136314.324
 20
134401.755
 30
0.0
 11
135714.324
 21
134401.755
 31
0.0
  0
LINE
  5
1E4
100
AcDbEntity
  8
2-1
  6
CONTINUOUS
 62
     3
100
AcDbLine
 10
136314.324
 20
130801.755
 30
0.0
 11
136314.324
 21
130401.755
 31
0.0
  0
LINE
  5
1E5
100
AcDbEntity
  8
2-1
  6
CONTINUOUS
 62
     3
100
AcDbLine
 10
136314.324
 20
130801.755
 30
0.0
 11
135714.324
 21
130801.755
 31
0.0
  0
LINE
  5
1E6
100
AcDbEntity
  8
2-1
  6
CONTINUOUS
 62
     3
100
AcDbLine
 10
136314.324
 20
130401.755
 30
0.0
 11
135714.324
 21
130401.755
 31
0.0
  0
LINE
  5
1E7
100
AcDbEntity
  8
2-1
  6
CONTINUOUS
 62
     3
100
AcDbLine
 10
136314.324
 20
126801.755
 30
0.0
 11
136314.324
 21
126401.755
 31
0.0
  0
LINE
  5
1E8
100
AcDbEntity
  8
2-1
  6
CONTINUOUS
 62
     3
100
AcDbLine
 10
136314.324
 20
126801.755
 30
0.0
 11
135714.324
 21
126801.755
 31
0.0
  0
LINE
  5
1E9
100
AcDbEntity
  8
2-1
  6
CONTINUOUS
 62
     3
100
AcDbLine
 10
136314.324
 20
126401.755
 30
0.0
 11
135714.324
 21
126401.755
 31
0.0
  0
LINE
  5
1EA
100
AcDbEntity
  8
2-1
  6
CONTINUOUS
 62
     3
100
AcDbLine
 10
136314.324
 20
122801.755
 30
0.0
 11
136314.324
 21
122401.755
 31
0.0
  0
LINE
  5
1EB
100
AcDbEntity
  8
2-1
  6
CONTINUOUS
 62
     3
100
AcDbLine
 10
136314.324
 20
122801.755
 30
0.0
 11
135714.324
 21
122801.755
 31
0.0
  0
LINE
  5
1EC
100
AcDbEntity
  8
2-1
  6
CONTINUOUS
 62
     3
100
AcDbLine
 10
136314.324
 20
122401.755
 30
0.0
 11
136014.324
 21
122401.755
 31
0.0
  0
LINE
  5
1ED
100
AcDbEntity
  8
2-1
  6
CONTINUOUS
 62
     3
100
AcDbLine
 10
136314.324
 20
118801.755
 30
0.0
 11
136314.324
 21
118401.755
 31
0.0
  0
LINE
  5
1EE
100
AcDbEntity
  8
2-1
  6
CONTINUOUS
 62
     3
100
AcDbLine
 10
136314.324
 20
118801.755
 30
0.0
 11
136014.324
 21
118801.755
 31
0.0
  0
LINE
  5
1EF
100
AcDbEntity
  8
2-1
  6
CONTINUOUS
 62
     3
100
AcDbLine
 10
136314.324
 20
118401.755
 30
0.0
 11
135514.324
 21
118401.755
 31
0.0
  0
LINE
  5
1F0
100
AcDbEntity
  8
2-1
  6
CONTINUOUS
 62
     3
100
AcDbLine
 10
136314.324
 20
154801.755
 30
0.0
 11
136314.324
 21
154401.755
 31
0.0
  0
LINE
  5
1F1
100
AcDbEntity
  8
2-1
  6
CONTINUOUS
 62
     3
100
AcDbLine
 10
136314.324
 20
154801.755
 30
0.0
 11
135514.324
 21
154801.755
 31
0.0
  0
LINE
  5
1F2
100
AcDbEntity
  8
2-1
  6
CONTINUOUS
 62
     3
100
AcDbLine
 10
136314.324
 20
154401.755
 30
0.0
 11
136014.324
 21
154401.755
 31
0.0
  0
LINE
  5
1F3
100
AcDbEntity
  8
2-1
  6
CONTINUOUS
 62
     3
100
AcDbLine
 10
135514.324
 20
154801.755
 30
0.0
 11
135514.324
 21
154601.755
 31
0.0
  0
LINE
  5
1F4
100
AcDbEntity
  8
2-1
  6
CONTINUOUS
 62
     1
100
AcDbLine
 10
110032.032333
 20
155601.755
 30
0.0
 11
122714.324
 21
155601.755
 31
0.0
  0
LINE
  5
1F5
100
AcDbEntity
  8
2-1
  6
CONTINUOUS
 62
     1
100
AcDbLine
 10
110014.324
 20
155801.755
 30
0.0
 11
122514.324
 21
155801.755
 31
0.0
  0
LINE
  5
1F6
100
AcDbEntity
  8
2-1
  6
CONTINUOUS
 62
     1
100
AcDbLine
 10
136914.324
 20
155801.755
 30
0.0
 11
136914.324
 21
150651.755
 31
0.0
  0
LINE
  5
1F7
100
AcDbEntity
  8
2-1
  6
CONTINUOUS
 62
     3
100
AcDbLine
 10
131914.324
 20
154951.755
 30
0.0
 11
131514.324
 21
154951.755
 31
0.0
  0
LINE
  5
1F8
100
AcDbEntity
  8
2-1
  6
CONTINUOUS
 62
     3
100
AcDbLine
 10
131914.324
 20
154951.755
 30
0.0
 11
131914.324
 21
154601.755
 31
0.0
  0
LINE
  5
1F9
100
AcDbEntity
  8
2-1
  6
CONTINUOUS
 62
     3
100
AcDbLine
 10
131514.324
 20
154951.755
 30
0.0
 11
131514.324
 21
154601.755
 31
0.0
  0
LINE
  5
1FA
100
AcDbEntity
  8
2-1
  6
CONTINUOUS
 62
     3
100
AcDbLine
 10
127914.324
 20
154951.755
 30
0.0
 11
127514.324
 21
154951.755
 31
0.0
  0
LINE
  5
1FB
100
AcDbEntity
  8
2-1
  6
CONTINUOUS
 62
     3
100
AcDbLine
 10
127914.324
 20
154951.755
 30
0.0
 11
127914.324
 21
154601.755
 31
0.0
  0
LINE
  5
1FC
100
AcDbEntity
  8
2-1
  6
CONTINUOUS
 62
     3
100
AcDbLine
 10
127514.324
 20
154951.755
 30
0.0
 11
127514.324
 21
154601.755
 31
0.0
  0
LINE
  5
1FD
100
AcDbEntity
  8
2-1
  6
CONTINUOUS
 62
     3
100
AcDbLine
 10
123914.324
 20
154951.755
 30
0.0
 11
123514.324
 21
154951.755
 31
0.0
  0
LINE
  5
1FE
100
AcDbEntity
  8
2-1
  6
CONTINUOUS
 62
     3
100
AcDbLine
 10
123914.324
 20
154951.755
 30
0.0
 11
123914.324
 21
154601.755
 31
0.0
  0
LINE
  5
1FF
100
AcDbEntity
  8
2-1
  6
CONTINUOUS
 62
     3
100
AcDbLine
 10
123514.324
 20
154951.755
 30
0.0
 11
123514.324
 21
154601.755
 31
0.0
  0
LINE
  5
200
100
AcDbEntity
  8
2-1
  6
CONTINUOUS
 62
     3
100
AcDbLine
 10
119914.324
 20
154951.755
 30
0.0
 11
119514.324
 21
154951.755
 31
0.0
  0
LINE
  5
201
100
AcDbEntity
  8
2-1
  6
CONTINUOUS
 62
     3
100
AcDbLine
 10
119914.324
 20
154951.755
 30
0.0
 11
119914.324
 21
154601.755
 31
0.0
  0
LINE
  5
202
100
AcDbEntity
  8
2-1
  6
CONTINUOUS
 62
     3
100
AcDbLine
 10
119514.324
 20
154951.755
 30
0.0
 11
119514.324
 21
154601.755
 31
0.0
  0
LINE
  5
203
100
AcDbEntity
  8
2-1
  6
CONTINUOUS
 62
     3
100
AcDbLine
 10
131514.324
 20
118601.755
 30
0.0
 11
127914.324
 21
118601.755
 31
0.0
  0
LINE
  5
204
100
AcDbEntity
  8
2-1
  6
CONTINUOUS
 62
     3
100
AcDbLine
 10
127514.324
 20
118601.755
 30
0.0
 11
123914.324
 21
118601.755
 31
0.0
  0
LINE
  5
205
100
AcDbEntity
  8
2-1
  6
CONTINUOUS
 62
     3
100
AcDbLine
 10
123514.324
 20
118601.755
 30
0.0
 11
119914.324
 21
118601.755
 31
0.0
  0
LINE
  5
206
100
AcDbEntity
  8
2-1
  6
CONTINUOUS
 62
     3
100
AcDbLine
 10
131914.324
 20
118251.755
 30
0.0
 11
131514.324
 21
118251.755
 31
0.0
  0
LINE
  5
207
100
AcDbEntity
  8
2-1
  6
CONTINUOUS
 62
     3
100
AcDbLine
 10
131914.324
 20
118251.755
 30
0.0
 11
131914.324
 21
118601.755
 31
0.0
  0
LINE
  5
208
100
AcDbEntity
  8
2-1
  6
CONTINUOUS
 62
     3
100
AcDbLine
 10
131514.324
 20
118251.755
 30
0.0
 11
131514.324
 21
118601.755
 31
0.0
  0
LINE
  5
209
100
AcDbEntity
  8
2-1
  6
CONTINUOUS
 62
     3
100
AcDbLine
 10
127914.324
 20
118251.755
 30
0.0
 11
127514.324
 21
118251.755
 31
0.0
  0
LINE
  5
20A
100
AcDbEntity
  8
2-1
  6
CONTINUOUS
 62
     3
100
AcDbLine
 10
127914.324
 20
118251.755
 30
0.0
 11
127914.324
 21
118601.755
 31
0.0
  0
LINE
  5
20B
100
AcDbEntity
  8
2-1
  6
CONTINUOUS
 62
     3
100
AcDbLine
 10
127514.324
 20
118251.755
 30
0.0
 11
127514.324
 21
118601.755
 31
0.0
  0
LINE
  5
20C
100
AcDbEntity
  8
2-1
  6
CONTINUOUS
 62
     3
100
AcDbLine
 10
123914.324
 20
118251.755
 30
0.0
 11
123514.324
 21
118251.755
 31
0.0
  0
LINE
  5
20D
100
AcDbEntity
  8
2-1
  6
CONTINUOUS
 62
     3
100
AcDbLine
 10
123914.324
 20
118251.755
 30
0.0
 11
123914.324
 21
118601.755
 31
0.0
  0
LINE
  5
20E
100
AcDbEntity
  8
2-1
  6
CONTINUOUS
 62
     3
100
AcDbLine
 10
123514.324
 20
118251.755
 30
0.0
 11
123514.324
 21
118601.755
 31
0.0
  0
LINE
  5
20F
100
AcDbEntity
  8
2-1
  6
CONTINUOUS
 62
     3
100
AcDbLine
 10
119914.324
 20
118251.755
 30
0.0
 11
119514.324
 21
118251.755
 31
0.0
  0
LINE
  5
210
100
AcDbEntity
  8
2-1
  6
CONTINUOUS
 62
     3
100
AcDbLine
 10
119914.324
 20
118251.755
 30
0.0
 11
119914.324
 21
118601.755
 31
0.0
  0
LINE
  5
211
100
AcDbEntity
  8
2-1
  6
CONTINUOUS
 62
     3
100
AcDbLine
 10
119514.324
 20
118251.755
 30
0.0
 11
119514.324
 21
118601.755
 31
0.0
  0
LINE
  5
212
100
AcDbEntity
  8
2-1
  6
CONTINUOUS
 62
     3
100
AcDbLine
 10
119514.324
 20
118601.755
 30
0.0
 11
115914.324
 21
118601.755
 31
0.0
  0
LINE
  5
213
100
AcDbEntity
  8
2-1
  6
CONTINUOUS
 62
     3
100
AcDbLine
 10
135514.324
 20
118601.755
 30
0.0
 11
131914.324
 21
118601.755
 31
0.0
  0
LINE
  5
214
100
AcDbEntity
  8
2-1
  6
CONTINUOUS
 62
     3
100
AcDbLine
 10
135514.324
 20
118601.755
 30
0.0
 11
135514.324
 21
118401.755
 31
0.0
  0
LINE
  5
215
100
AcDbEntity
  8
2-1
  6
CONTINUOUS
 62
     3
100
AcDbLine
 10
115914.324
 20
118601.755
 30
0.0
 11
115914.324
 21
118401.755
 31
0.0
  0
LINE
  5
216
100
AcDbEntity
  8
2-1
  6
CONTINUOUS
 62
     1
100
AcDbLine
 10
123514.324
 20
154951.755
 30
0.0
 11
123514.324
 21
156601.755
 31
0.0
  0
LINE
  5
217
100
AcDbEntity
  8
2-1
  6
CONTINUOUS
 62
     1
100
AcDbLine
 10
127914.324
 20
154951.755
 30
0.0
 11
127914.324
 21
156601.755
 31
0.0
  0
LINE
  5
218
100
AcDbEntity
  8
2-1
  6
CONTINUOUS
 62
     1
100
AcDbLine
 10
128214.324
 20
154601.755
 30
0.0
 11
128214.324
 21
156901.755
 31
0.0
  0
LINE
  5
219
100
AcDbEntity
  8
2-1
  6
CONTINUOUS
 62
     1
100
AcDbLine
 10
128514.324
 20
157201.755
 30
0.0
 11
128514.324
 21
154601.755
 31
0.0
  0
LINE
  5
21A
100
AcDbEntity
  8
2-1
  6
CONTINUOUS
 62
     1
100
AcDbLine
 10
123214.324
 20
156901.755
 30
0.0
 11
123214.324
 21
154601.755
 31
0.0
  0
LINE
  5
21B
100
AcDbEntity
  8
2-1
  6
CONTINUOUS
 62
     1
100
AcDbLine
 10
122914.324
 20
157201.755
 30
0.0
 11
122914.324
 21
154601.755
 31
0.0
  0
LINE
  5
21C
100
AcDbEntity
  8
2-1
  6
CONTINUOUS
 62
     1
100
AcDbLine
 10
122714.324
 20
157601.755
 30
0.0
 11
128714.324
 21
157601.755
 31
0.0
  0
LINE
  5
21D
100
AcDbEntity
  8
2-1
  6
CONTINUOUS
 62
     1
100
AcDbLine
 10
122914.324
 20
157201.755
 30
0.0
 11
128514.324
 21
157201.755
 31
0.0
  0
LINE
  5
21E
100
AcDbEntity
  8
2-1
  6
CONTINUOUS
 62
     1
100
AcDbLine
 10
123214.324
 20
156901.755
 30
0.0
 11
128214.324
 21
156901.755
 31
0.0
  0
LINE
  5
21F
100
AcDbEntity
  8
2-1
  6
CONTINUOUS
 62
     1
100
AcDbLine
 10
127914.324
 20
156601.755
 30
0.0
 11
123514.324
 21
156601.755
 31
0.0
  0
LINE
  5
220
100
AcDbEntity
  8
2-1
  6
CONTINUOUS
 62
     1
100
AcDbLine
 10
122714.324
 20
157601.755
 30
0.0
 11
122714.324
 21
155601.755
 31
0.0
  0
LINE
  5
221
100
AcDbEntity
  8
2-1
  6
CONTINUOUS
 62
     1
100
AcDbLine
 10
122514.324
 20
157801.755
 30
0.0
 11
122514.324
 21
155801.755
 31
0.0
  0
LINE
  5
222
100
AcDbEntity
  8
2-1
  6
CONTINUOUS
 62
     1
100
AcDbLine
 10
128714.324
 20
157601.755
 30
0.0
 11
128714.324
 21
155601.755
 31
0.0
  0
LINE
  5
223
100
AcDbEntity
  8
2-1
  6
CONTINUOUS
 62
     1
100
AcDbLine
 10
128914.324
 20
157801.755
 30
0.0
 11
128914.324
 21
155801.755
 31
0.0
  0
LINE
  5
224
100
AcDbEntity
  8
2-1
  6
CONTINUOUS
 62
     1
100
AcDbLine
 10
128914.324
 20
157801.755
 30
0.0
 11
122514.324
 21
157801.755
 31
0.0
  0
LINE
  5
225
100
AcDbEntity
  8
2-1
  6
CONTINUOUS
 62
     1
100
AcDbLine
 10
128714.324
 20
155601.755
 30
0.0
 11
136714.324
 21
155601.755
 31
0.0
  0
LINE
  5
226
100
AcDbEntity
  8
2-1
  6
CONTINUOUS
 62
     1
100
AcDbLine
 10
128914.324
 20
155801.755
 30
0.0
 11
136914.324
 21
155801.755
 31
0.0
  0
LINE
  5
227
100
AcDbEntity
  8
2-1
  6
CONTINUOUS
 62
     3
100
AcDbLine
 10
136014.324
 20
150801.755
 30
0.0
 11
136014.324
 21
154401.755
 31
0.0
  0
LINE
  5
228
100
AcDbEntity
  8
2-1
  6
CONTINUOUS
 62
     3
100
AcDbLine
 10
115414.324
 20
150801.755
 30
0.0
 11
115414.324
 21
154401.755
 31
0.0
  0
LINE
  5
229
100
AcDbEntity
  8
2-1
  6
CONTINUOUS
 62
     1
100
AcDbLine
 10
136714.324
 20
150401.755
 30
0.0
 11
136714.324
 21
146801.755
 31
0.0
  0
LINE
  5
22A
100
AcDbEntity
  8
2-1
  6
CONTINUOUS
 62
     1
100
AcDbLine
 10
136314.324
 20
150651.755
 30
0.0
 11
138714.324
 21
150651.755
 31
0.0
  0
LINE
  5
22B
100
AcDbEntity
  8
2-1
  6
CONTINUOUS
 62
     1
100
AcDbLine
 10
136964.324
 20
150651.755
 30
0.0
 11
136964.324
 21
146551.755
 31
0.0
  0
LINE
  5
22C
100
AcDbEntity
  8
2-1
  6
CONTINUOUS
 62
     1
100
AcDbLine
 10
136964.324
 20
146551.755
 30
0.0
 11
136314.324
 21
146551.755
 31
0.0
  0
LINE
  5
22D
100
AcDbEntity
  8
2-1
  6
CONTINUOUS
 62
     1
100
AcDbLine
 10
136314.324
 20
146801.755
 30
0.0
 11
136714.324
 21
146801.755
 31
0.0
  0
LINE
  5
22E
100
AcDbEntity
  8
2-1
  6
CONTINUOUS
 62
     3
100
AcDbLine
 10
136314.324
 20
150401.755
 30
0.0
 11
136714.324
 21
150401.755
 31
0.0
  0
LINE
  5
22F
100
AcDbEntity
  8
2-1
  6
CONTINUOUS
 62
     1
100
AcDbLine
 10
138714.324
 20
150651.755
 30
0.0
 11
138714.324
 21
142401.755
 31
0.0
  0
LINE
  5
230
100
AcDbEntity
  8
2-1
  6
CONTINUOUS
 62
     3
100
AcDbLine
 10
139714.324
 20
149601.755
 30
0.0
 11
139714.324
 21
147601.755
 31
0.0
  0
LINE
  5
231
100
AcDbEntity
  8
2-1
  6
CONTINUOUS
 62
     3
100
AcDbLine
 10
140714.324
 20
149601.755
 30
0.0
 11
140714.324
 21
147601.755
 31
0.0
  0
LINE
  5
232
100
AcDbEntity
  8
2-1
  6
CONTINUOUS
 62
     3
100
AcDbLine
 10
142214.324
 20
149601.755
 30
0.0
 11
152814.324
 21
149601.755
 31
0.0
  0
LINE
  5
233
100
AcDbEntity
  8
2-1
  6
CONTINUOUS
 62
     3
100
AcDbLine
 10
152814.324
 20
147601.755
 30
0.0
 11
142214.324
 21
147601.755
 31
0.0
  0
LINE
  5
234
100
AcDbEntity
  8
2-1
  6
CONTINUOUS
 62
     3
100
AcDbLine
 10
142214.324
 20
149601.755
 30
0.0
 11
140714.324
 21
149601.755
 31
0.0
  0
LINE
  5
235
100
AcDbEntity
  8
2-1
  6
CONTINUOUS
 62
     3
100
AcDbLine
 10
142214.324
 20
147601.755
 30
0.0
 11
140714.324
 21
147601.755
 31
0.0
  0
LINE
  5
236
100
AcDbEntity
  8
2-1
  6
CONTINUOUS
 62
     3
100
AcDbLine
 10
138214.324
 20
147601.755
 30
0.0
 11
136714.324
 21
147601.755
 31
0.0
  0
LINE
  5
237
100
AcDbEntity
  8
2-1
  6
CONTINUOUS
 62
     3
100
AcDbLine
 10
138214.324
 20
149601.755
 30
0.0
 11
136714.324
 21
149601.755
 31
0.0
  0
LINE
  5
238
100
AcDbEntity
  8
2-1
  6
CONTINUOUS
 62
     3
100
AcDbLine
 10
138214.324
 20
149601.755
 30
0.0
 11
139714.324
 21
149601.755
 31
0.0
  0
LINE
  5
239
100
AcDbEntity
  8
2-1
  6
CONTINUOUS
 62
     3
100
AcDbLine
 10
138214.324
 20
147601.755
 30
0.0
 11
139714.324
 21
147601.755
 31
0.0
  0
LINE
  5
23A
100
AcDbEntity
  8
2-1
  6
CONTINUOUS
 62
     3
100
AcDbLine
 10
136714.324
 20
149601.755
 30
0.0
 11
135714.324
 21
149601.755
 31
0.0
  0
LINE
  5
23B
100
AcDbEntity
  8
2-1
  6
CONTINUOUS
 62
     3
100
AcDbLine
 10
136714.324
 20
147601.755
 30
0.0
 11
135714.324
 21
147601.755
 31
0.0
  0
LINE
  5
23C
100
AcDbEntity
  8
2-1
  6
CONTINUOUS
 62
     1
100
AcDbLine
 10
136914.324
 20
142601.755
 30
0.0
 11
138714.324
 21
142601.755
 31
0.0
  0
LINE
  5
23D
100
AcDbEntity
  8
2-1
  6
CONTINUOUS
 62
     1
100
AcDbLine
 10
137114.324
 20
142401.755
 30
0.0
 11
138714.324
 21
142401.755
 31
0.0
  0
LINE
  5
23E
100
AcDbEntity
  8
2-1
  6
CONTINUOUS
 62
     1
100
AcDbLine
 10
136914.324
 20
142601.755
 30
0.0
 11
136914.324
 21
117601.755
 31
0.0
  0
LINE
  5
23F
100
AcDbEntity
  8
2-1
  6
CONTINUOUS
 62
     1
100
AcDbLine
 10
137114.324
 20
142401.755
 30
0.0
 11
137114.324
 21
117401.755
 31
0.0
  0
LINE
  5
240
100
AcDbEntity
  8
2-1
  6
CONTINUOUS
 62
     1
100
AcDbLine
 10
137514.324
 20
145701.755
 30
0.0
 11
137514.324
 21
143501.755
 31
0.0
  0
LINE
  5
241
100
AcDbEntity
  8
2-1
  6
CONTINUOUS
 62
     1
100
AcDbLine
 10
136614.324
 20
143501.755
 30
0.0
 11
136614.324
 21
145701.755
 31
0.0
  0
LINE
  5
242
100
AcDbEntity
  8
2-1
  6
CONTINUOUS
 62
     1
100
AcDbLine
 10
137514.324
 20
145701.755
 30
0.0
 11
136614.324
 21
145701.755
 31
0.0
  0
LINE
  5
243
100
AcDbEntity
  8
2-1
  6
CONTINUOUS
 62
     1
100
AcDbLine
 10
137514.324
 20
143501.755
 30
0.0
 11
136614.324
 21
143501.755
 31
0.0
  0
LINE
  5
244
100
AcDbEntity
  8
2-1
  6
CONTINUOUS
 62
     1
100
AcDbLine
 10
136814.324
 20
145701.755
 30
0.0
 11
136814.324
 21
143501.755
 31
0.0
  0
LINE
  5
245
100
AcDbEntity
  8
2-1
  6
CONTINUOUS
 62
     1
100
AcDbLine
 10
136314.324
 20
122801.755
 30
0.0
 11
136664.324
 21
122801.755
 31
0.0
  0
LINE
  5
246
100
AcDbEntity
  8
2-1
  6
CONTINUOUS
 62
     1
100
AcDbLine
 10
136314.324
 20
126401.755
 30
0.0
 11
136664.324
 21
126401.755
 31
0.0
  0
LINE
  5
247
100
AcDbEntity
  8
2-1
  6
CONTINUOUS
 62
     1
100
AcDbLine
 10
136314.324
 20
126651.755
 30
0.0
 11
136914.324
 21
126651.755
 31
0.0
  0
LINE
  5
248
100
AcDbEntity
  8
2-1
  6
CONTINUOUS
 62
     1
100
AcDbLine
 10
136314.324
 20
122551.755
 30
0.0
 11
136914.324
 21
122551.755
 31
0.0
  0
LINE
  5
249
100
AcDbEntity
  8
2-1
  6
CONTINUOUS
 62
     1
100
AcDbLine
 10
136664.324
 20
122801.755
 30
0.0
 11
136664.324
 21
126401.755
 31
0.0
  0
LINE
  5
24A
100
AcDbEntity
  8
2-1
  6
CONTINUOUS
 62
     1
100
AcDbLine
 10
136914.324
 20
117601.755
 30
0.0
 11
113396.615667
 21
117601.755
 31
0.0
  0
LINE
  5
24B
100
AcDbEntity
  8
2-1
  6
CONTINUOUS
 62
     1
100
AcDbLine
 10
137114.324
 20
117401.755
 30
0.0
 11
113414.324
 21
117401.755
 31
0.0
  0
LINE
  5
24C
100
AcDbEntity
  8
2-1
  6
CONTINUOUS
 62
     1
100
AcDbLine
 10
114714.324
 20
126401.755
 30
0.0
 11
114714.324
 21
122801.755
 31
0.0
  0
LINE
  5
24D
100
AcDbEntity
  8
2-1
  6
CONTINUOUS
 62
     1
100
AcDbLine
 10
114414.324
 20
122801.755
 30
0.0
 11
114414.324
 21
126401.755
 31
0.0
  0
LINE
  5
24E
100
AcDbEntity
  8
2-1
  6
CONTINUOUS
 62
     1
100
AcDbLine
 10
114114.324
 20
122801.755
 30
0.0
 11
114114.324
 21
126401.755
 31
0.0
  0
LINE
  5
24F
100
AcDbEntity
  8
2-1
  6
CONTINUOUS
 62
     1
100
AcDbLine
 10
113814.324
 20
122801.755
 30
0.0
 11
113814.324
 21
126401.755
 31
0.0
  0
LINE
  5
250
100
AcDbEntity
  8
2-1
  6
CONTINUOUS
 62
     1
100
AcDbLine
 10
115114.324
 20
126401.755
 30
0.0
 11
113814.324
 21
126401.755
 31
0.0
  0
LINE
  5
251
100
AcDbEntity
  8
2-1
  6
CONTINUOUS
 62
     1
100
AcDbLine
 10
115114.324
 20
122801.755
 30
0.0
 11
113814.324
 21
122801.755
 31
0.0
  0
LINE
  5
252
100
AcDbEntity
  8
2-1
  6
CONTINUOUS
 62
     1
100
AcDbLine
 10
114714.324
 20
150401.755
 30
0.0
 11
114714.324
 21
146801.755
 31
0.0
  0
LINE
  5
253
100
AcDbEntity
  8
2-1
  6
CONTINUOUS
 62
     1
100
AcDbLine
 10
114414.324
 20
146801.755
 30
0.0
 11
114414.324
 21
150401.755
 31
0.0
  0
LINE
  5
254
100
AcDbEntity
  8
2-1
  6
CONTINUOUS
 62
     1
100
AcDbLine
 10
114114.324
 20
146801.755
 30
0.0
 11
114114.324
 21
150401.755
 31
0.0
  0
LINE
  5
255
100
AcDbEntity
  8
2-1
  6
CONTINUOUS
 62
     1
100
AcDbLine
 10
113814.324
 20
146801.755
 30
0.0
 11
113814.324
 21
150401.755
 31
0.0
  0
LINE
  5
256
100
AcDbEntity
  8
2-1
  6
CONTINUOUS
 62
     1
100
AcDbLine
 10
115114.324
 20
150401.755
 30
0.0
 11
113814.324
 21
150401.755
 31
0.0
  0
LINE
  5
257
100
AcDbEntity
  8
2-1
  6
CONTINUOUS
 62
     1
100
AcDbLine
 10
115114.324
 20
146801.755
 30
0.0
 11
113814.324
 21
146801.755
 31
0.0
  0
LINE
  5
258
100
AcDbEntity
  8
2-1
  6
CONTINUOUS
 62
     1
100
AcDbLine
 10
152814.324
 20
147601.755
 30
0.0
 11
154564.324
 21
147601.755
 31
0.0
  0
LINE
  5
259
100
AcDbEntity
  8
2-1
  6
CONTINUOUS
 62
     4
100
AcDbLine
 10
200014.324
 20
192701.755
 30
0.0
 11
201014.324
 21
192701.755
 31
0.0
  0
LINE
  5
25A
100
AcDbEntity
  8
2-1
  6
CONTINUOUS
 62
     4
100
AcDbLine
 10
201014.324
 20
192701.755
 30
0.0
 11
201014.324
 21
190201.755
 31
0.0
  0
LINE
  5
25B
100
AcDbEntity
  8
2-1
  6
CONTINUOUS
 62
     4
100
AcDbLine
 10
201014.324
 20
190201.755
 30
0.0
 11
200014.324
 21
190201.755
 31
0.0
  0
LINE
  5
25C
100
AcDbEntity
  8
2-1
  6
CONTINUOUS
 62
     3
100
AcDbLine
 10
174673.203558
 20
199798.991451
 30
0.0
 11
178840.708788
 21
200049.041765
 31
0.0
  0
LINE
  5
25D
100
AcDbEntity
  8
2-1
  6
CONTINUOUS
 62
    11
100
AcDbLine
 10
176450.008183
 20
211927.180324
 30
0.0
 11
177222.618734
 21
199050.337817
 31
0.0
  0
LINE
  5
25E
100
AcDbEntity
  8
2-1
  6
CONTINUOUS
 62
    11
100
AcDbLine
 10
177222.618734
 20
199050.337817
 30
0.0
 11
184150.054551
 21
199050.337817
 31
0.0
  0
LINE
  5
25F
100
AcDbEntity
  8
2-1
  6
CONTINUOUS
 62
    11
100
AcDbLine
 10
178334.324
 20
199050.337817
 30
0.0
 11
178334.324
 21
198450.337817
 31
0.0
  0
LINE
  5
260
100
AcDbEntity
  8
2-1
  6
CONTINUOUS
 62
    11
100
AcDbLine
 10
178334.324
 20
198750.337817
 30
0.0
 11
179334.324
 21
198750.337817
 31
0.0
  0
LINE
  5
261
100
AcDbEntity
  8
2-1
  6
CONTINUOUS
 62
     5
100
AcDbLine
 10
179334.324
 20
199050.337817
 30
0.0
 11
179334.324
 21
198450.337817
 31
0.0
  0
LINE
  5
262
100
AcDbEntity
  8
2-1
  6
CONTINUOUS
 62
     4
100
AcDbLine
 10
178845.799633
 20
199964.194353
 30
0.0
 11
184076.393023
 21
200278.029957
 31
0.0
  0
LINE
  5
263
100
AcDbEntity
  8
2-1
  6
CONTINUOUS
 62
     4
100
AcDbLine
 10
178806.270721
 20
200623.009551
 30
0.0
 11
178845.799633
 21
199964.194353
 31
0.0
  0
LINE
  5
264
100
AcDbEntity
  8
2-1
  6
CONTINUOUS
 62
     4
100
AcDbLine
 10
184076.393023
 20
200278.029957
 30
0.0
 11
184530.96952
 21
192701.755
 31
0.0
  0
LINE
  5
265
100
AcDbEntity
  8
2-1
  6
CONTINUOUS
 62
     4
100
AcDbLine
 10
186704.872011
 20
192701.755
 30
0.0
 11
186526.386996
 21
195676.50526
 31
0.0
  0
LINE
  5
266
100
AcDbEntity
  8
2-1
  6
CONTINUOUS
 62
     4
100
AcDbLine
 10
186780.929231
 20
195691.777794
 30
0.0
 11
186526.386996
 21
195676.50526
 31
0.0
  0
LINE
  5
267
100
AcDbEntity
  8
2-1
  6
CONTINUOUS
 62
     4
100
AcDbLine
 10
186780.929231
 20
195691.777794
 30
0.0
 11
186766.555081
 21
195931.346957
 31
0.0
  0
LINE
  5
268
100
AcDbEntity
  8
2-1
  6
CONTINUOUS
 62
     4
100
AcDbLine
 10
186766.555081
 20
195931.346957
 30
0.0
 11
194572.516973
 21
196399.704671
 31
0.0
  0
LINE
  5
269
100
AcDbEntity
  8
2-1
  6
CONTINUOUS
 62
     4
100
AcDbLine
 10
194608.751809
 20
195795.790739
 30
0.0
 11
194572.516973
 21
196399.704671
 31
0.0
  0
LINE
  5
26A
100
AcDbEntity
  8
2-1
  6
CONTINUOUS
 62
     4
100
AcDbLine
 10
194608.751809
 20
195795.790739
 30
0.0
 11
201760.889527
 21
196224.919002
 31
0.0
  0
LINE
  5
26B
100
AcDbEntity
  8
2-1
  6
CONTINUOUS
 62
     4
100
AcDbLine
 10
201721.959538
 20
196873.752152
 30
0.0
 11
201760.889527
 21
196224.919002
 31
0.0
  0
LINE
  5
26C
100
AcDbEntity
  8
2-1
  6
CONTINUOUS
 62
     4
100
AcDbLine
 10
201721.959538
 20
196873.752152
 30
0.0
 11
201477.724571
 21
196859.098054
 31
0.0
  0
LINE
  5
26D
100
AcDbEntity
  8
2-1
  6
CONTINUOUS
 62
    11
100
AcDbLine
 10
201837.551659
 20
206217.448608
 30
0.0
 11
202395.747808
 21
196914.179448
 31
0.0
  0
LINE
  5
26E
100
AcDbEntity
  8
2-1
  6
CONTINUOUS
 62
    11
100
AcDbLine
 10
201721.959538
 20
196873.752152
 30
0.0
 11
202395.747808
 21
196914.179448
 31
0.0
  0
LINE
  5
26F
100
AcDbEntity
  8
2-1
  6
CONTINUOUS
 62
    11
100
AcDbLine
 10
202096.885278
 20
201895.221627
 30
0.0
 11
201181.879845
 21
201840.321301
 31
0.0
  0
LINE
  5
270
100
AcDbEntity
  8
2-1
  6
CONTINUOUS
 62
    11
100
AcDbLine
 10
201166.465089
 20
202099.863995
 30
0.0
 11
202081.313282
 21
202154.754887
 31
0.0
  0
LINE
  5
271
100
AcDbEntity
  8
2-1
  6
CONTINUOUS
 62
    11
100
AcDbLine
 10
201151.050334
 20
202359.406689
 30
0.0
 11
202065.741286
 21
202414.288146
 31
0.0
  0
LINE
  5
272
100
AcDbEntity
  8
2-1
  6
CONTINUOUS
 62
     4
100
AcDbLine
 10
201234.935394
 20
204573.405227
 30
0.0
 11
201020.321352
 21
204560.528385
 31
0.0
  0
LINE
  5
273
100
AcDbEntity
  8
2-1
  6
CONTINUOUS
 62
     4
100
AcDbLine
 10
201477.724571
 20
196859.098054
 30
0.0
 11
201020.321352
 21
204560.528385
 31
0.0
  0
LINE
  5
274
100
AcDbEntity
  8
2-1
  6
CONTINUOUS
 62
     4
100
AcDbLine
 10
201221.559449
 20
205213.753635
 30
0.0
 11
201258.393207
 21
204599.857656
 31
0.0
  0
LINE
  5
275
100
AcDbEntity
  8
2-1
  6
CONTINUOUS
 62
     4
100
AcDbLine
 10
178891.018312
 20
203217.743226
 30
0.0
 11
179045.839884
 21
200637.383701
 31
0.0
  0
LINE
  5
276
100
AcDbEntity
  8
2-1
  6
CONTINUOUS
 62
     4
100
AcDbLine
 10
178611.620776
 20
203867.175299
 30
0.0
 11
178651.449149
 21
203203.369077
 31
0.0
  0
LINE
  5
277
100
AcDbEntity
  8
2-1
  6
CONTINUOUS
 62
     4
100
AcDbLine
 10
178651.449149
 20
203203.369077
 30
0.0
 11
178891.018312
 21
203217.743226
 31
0.0
  0
LINE
  5
278
100
AcDbEntity
  8
2-1
  6
CONTINUOUS
 62
     4
100
AcDbLine
 10
178611.620776
 20
203867.175299
 30
0.0
 11
178851.189939
 21
203881.549449
 31
0.0
  0
LINE
  5
279
100
AcDbEntity
  8
2-1
  6
CONTINUOUS
 62
     4
100
AcDbLine
 10
178561.610713
 20
208707.869877
 30
0.0
 11
178851.189939
 21
203881.549449
 31
0.0
  0
LINE
  5
27A
100
AcDbEntity
  8
2-1
  6
CONTINUOUS
 62
     4
100
AcDbLine
 10
178282.213177
 20
209357.301949
 30
0.0
 11
178322.04155
 21
208693.495727
 31
0.0
  0
LINE
  5
27B
100
AcDbEntity
  8
2-1
  6
CONTINUOUS
 62
     4
100
AcDbLine
 10
178322.04155
 20
208693.495727
 30
0.0
 11
178561.610713
 21
208707.869877
 31
0.0
  0
LINE
  5
27C
100
AcDbEntity
  8
2-1
  6
CONTINUOUS
 62
     4
100
AcDbLine
 10
178282.213177
 20
209357.301949
 30
0.0
 11
178521.78234
 21
209371.676099
 31
0.0
  0
LINE
  5
27D
100
AcDbEntity
  8
2-1
  6
CONTINUOUS
 62
     4
100
AcDbLine
 10
178245.379418
 20
213978.391461
 30
0.0
 11
178521.78234
 21
209371.676099
 31
0.0
  0
LINE
  5
27E
100
AcDbEntity
  8
2-1
  6
CONTINUOUS
 62
     4
100
AcDbLine
 10
178005.810255
 20
213964.017311
 30
0.0
 11
178245.379418
 21
213978.391461
 31
0.0
  0
LINE
  5
27F
100
AcDbEntity
  8
2-1
  6
CONTINUOUS
 62
     4
100
AcDbLine
 10
178005.810255
 20
213964.017311
 30
0.0
 11
177967.179728
 21
214607.859436
 31
0.0
  0
LINE
  5
280
100
AcDbEntity
  8
2-1
  6
CONTINUOUS
 62
     4
100
AcDbLine
 10
198490.47913
 20
215839.2574
 30
0.0
 11
177967.179728
 21
214607.859436
 31
0.0
  0
LINE
  5
281
100
AcDbEntity
  8
2-1
  6
CONTINUOUS
 62
     4
100
AcDbLine
 10
200125.239205
 20
214389.564503
 30
0.0
 11
198490.47913
 21
215839.2574
 31
0.0
  0
LINE
  5
282
100
AcDbEntity
  8
2-1
  6
CONTINUOUS
 62
     4
100
AcDbLine
 10
200429.483904
 20
214407.819185
 30
0.0
 11
200125.239205
 21
214389.564503
 31
0.0
  0
LINE
  5
283
100
AcDbEntity
  8
2-1
  6
CONTINUOUS
 62
     4
100
AcDbLine
 10
200651.983764
 20
210699.488184
 30
0.0
 11
200429.483904
 21
214407.819185
 31
0.0
  0
LINE
  5
284
100
AcDbEntity
  8
2-1
  6
CONTINUOUS
 62
     4
100
AcDbLine
 10
200891.552927
 20
210713.862334
 30
0.0
 11
200651.983764
 21
210699.488184
 31
0.0
  0
LINE
  5
285
100
AcDbEntity
  8
2-1
  6
CONTINUOUS
 62
     4
100
AcDbLine
 10
200891.552927
 20
210713.862334
 30
0.0
 11
200930.482916
 21
210065.029184
 31
0.0
  0
LINE
  5
286
100
AcDbEntity
  8
2-1
  6
CONTINUOUS
 62
     4
100
AcDbLine
 10
200930.482916
 20
210065.029184
 30
0.0
 11
200690.913753
 21
210050.655035
 31
0.0
  0
LINE
  5
287
100
AcDbEntity
  8
2-1
  6
CONTINUOUS
 62
     4
100
AcDbLine
 10
200980.492979
 20
205224.334607
 30
0.0
 11
200690.913753
 21
210050.655035
 31
0.0
  0
LINE
  5
288
100
AcDbEntity
  8
2-1
  6
CONTINUOUS
 62
     4
100
AcDbLine
 10
201220.062141
 20
205238.708757
 30
0.0
 11
200980.492979
 21
205224.334607
 31
0.0
  0
LINE
  5
289
100
AcDbEntity
  8
2-1
  6
CONTINUOUS
 62
     4
100
AcDbLine
 10
201220.062141
 20
205238.708757
 30
0.0
 11
201259.890515
 21
204574.902534
 31
0.0
  0
LINE
  5
28A
100
AcDbEntity
  8
2-1
  6
CONTINUOUS
 62
     4
100
AcDbLine
 10
201259.890515
 20
204574.902534
 30
0.0
 11
201020.321352
 21
204560.528385
 31
0.0
  0
LINE
  5
28B
100
AcDbEntity
  8
2-1
  6
CONTINUOUS
 62
    11
100
AcDbLine
 10
201868.69565
 20
205698.382088
 30
0.0
 11
200955.338216
 21
205643.580642
 31
0.0
  0
LINE
  5
28C
100
AcDbEntity
  8
2-1
  6
CONTINUOUS
 62
    11
100
AcDbLine
 10
201853.123654
 20
205957.915348
 30
0.0
 11
200939.766221
 21
205903.113902
 31
0.0
  0
LINE
  5
28D
100
AcDbEntity
  8
2-1
  6
CONTINUOUS
 62
    11
100
AcDbLine
 10
201837.551659
 20
206217.448608
 30
0.0
 11
200924.194225
 21
206162.647162
 31
0.0
  0
LINE
  5
28E
100
AcDbEntity
  8
2-1
  6
CONTINUOUS
 62
    11
100
AcDbLine
 10
176450.008183
 20
211927.180324
 30
0.0
 11
178361.570462
 21
212041.87406
 31
0.0
  0
LINE
  5
28F
100
AcDbEntity
  8
2-1
  6
CONTINUOUS
 62
    11
100
AcDbLine
 10
177412.277654
 20
212585.995522
 30
0.0
 11
177448.213029
 21
211987.072614
 31
0.0
  0
LINE
  5
290
100
AcDbEntity
  8
2-1
  6
CONTINUOUS
 62
    11
100
AcDbLine
 10
178343.602775
 20
212341.335514
 30
0.0
 11
177430.245341
 21
212286.534068
 31
0.0
  0
LINE
  5
291
100
AcDbEntity
  8
2-1
  6
CONTINUOUS
 62
    11
100
AcDbLine
 10
178325.635088
 20
212640.796968
 30
0.0
 11
177412.277654
 21
212585.995522
 31
0.0
  0
LINE
  5
292
100
AcDbEntity
  8
2-1
  6
CONTINUOUS
 62
     4
100
AcDbLine
 10
178806.270721
 20
200623.009551
 30
0.0
 11
179045.839884
 21
200637.383701
 31
0.0
  0
LINE
  5
293
100
AcDbEntity
  8
2-1
  6
CONTINUOUS
 62
    11
100
AcDbLine
 10
179334.324
 20
198450.337817
 30
0.0
 11
178334.324
 21
198450.337817
 31
0.0
  0
LINE
  5
294
100
AcDbEntity
  8
2-1
  6
CONTINUOUS
 62
     3
100
AcDbLine
 10
173811.503225
 20
214160.663665
 30
0.0
 11
174673.203558
 21
199798.991451
 31
0.0
  0
LINE
  5
295
100
AcDbEntity
  8
2-1
  6
CONTINUOUS
 62
     3
100
AcDbLine
 10
177979.008455
 20
214410.713979
 30
0.0
 11
173811.503225
 21
214160.663665
 31
0.0
  0
INSERT
  5
298
100
AcDbEntity
  8
0
100
AcDbBlockReference
  2
INSERT1
 10
0.0
 20
0.0
 30
0.0
  0
INSERT
  5
2A9
100
AcDbEntity
  8
0
100
AcDbBlockReference
  2
INSERT2
 10
0.0
 20
0.0
 30
0.0
  0
INSERT
  5
2BA
100
AcDbEntity
  8
0
100
AcDbBlockReference
  2
INSERT3
 10
0.0
 20
0.0
 30
0.0
  0
TEXT
  5
2C4
100
AcDbEntity
  8
2-1
  6
CONTINUOUS
 62
     3
100
AcDbText
 10
154002.266
 20
176357.257
 30
0.0
 40
1800.0
  1
既存建物
 41
0.733333
 72
     1
 11
156642.266
 21
176357.257
 31
0.0
100
AcDbText
  0
TEXT
  5
2C5
100
AcDbEntity
  8
2-1
  6
CONTINUOUS
 62
     3
100
AcDbText
 10
193662.218
 20
166197.129
 30
0.0
 40
1800.0
  1
既存建物
 41
0.733333
 72
     1
 11
196302.218
 21
166197.129
 31
0.0
100
AcDbText
  0
TEXT
  5
2C6
100
AcDbEntity
  8
2-1
  6
CONTINUOUS
 62
     3
100
AcDbText
 10
122957.066
 20
135544.201
 30
0.0
 40
1800.0
  1
既存建物
 41
0.733333
 72
     1
 11
125597.066
 21
135544.201
 31
0.0
100
AcDbText
  0
LINE
  5
2C7
100
AcDbEntity
  8
2-1
  6
CONTINUOUS
 62
     1
100
AcDbLine
 10
205730.88055
 20
219699.743607
 30
0.0
 11
207398.380915
 21
60870.333886
 31
0.0
  0
LINE
  5
2C8
100
AcDbEntity
  8
2-1
  6
DASHDOT
 62
     8
100
AcDbLine
 10
182066.613994
 20
221000.700314
 30
0.0
 11
205730.88055
 21
219699.743607
 31
0.0
  0
LINE
  5
2CA
100
AcDbEntity
  8
2-1
  6
DASHDOT
 62
     8
100
AcDbLine
 10
174303.421602
 20
228364.316538
 30
0.0
 11
182066.613994
 21
221000.700314
 31
0.0
  0
LINE
  5
2CB
100
AcDbEntity
  8
2-1
  6
DASHDOT
 62
     8
100
AcDbLine
 10
147216.369134
 20
224234.959615
 30
0.0
 11
174303.421602
 21
228364.316538
 31
0.0
  0
LINE
  5
2CC
100
AcDbEntity
  8
2-1
  6
DASHDOT
 62
     8
100
AcDbLine
 10
121466.825964
 20
214024.620418
 30
0.0
 11
147216.369134
 21
224234.959615
 31
0.0
  0
LINE
  5
2CD
100
AcDbEntity
  8
2-1
  6
DASHDOT
 62
     8
100
AcDbLine
 10
104736.131136
 20
203200.886474
 30
0.0
 11
121466.825964
 21
214024.620418
 31
0.0
  0
LINE
  5
2CE
100
AcDbEntity
  8
2-1
  6
DASHDOT
 62
     8
100
AcDbLine
 10
102373.303881
 20
197806.383697
 30
0.0
 11
104736.131136
 21
203200.886474
 31
0.0
  0
LINE
  5
2CF
100
AcDbEntity
  8
2-1
  6
DASHDOT
 62
     8
100
AcDbLine
 10
97883.751749
 20
198112.850091
 30
0.0
 11
102373.303881
 21
197806.383697
 31
0.0
  0
LINE
  5
2D0
100
AcDbEntity
  8
2-1
  6
DASHDOT
 62
     8
100
AcDbLine
 10
78688.139733
 20
200729.751497
 30
0.0
 11
57320.488082
 21
206457.560723
 31
0.0
  0
LINE
  5
2D1
100
AcDbEntity
  8
2-1
  6
DASHDOT
 62
     8
100
AcDbLine
 10
91104.742743
 20
198274.391193
 30
0.0
 11
78688.139733
 21
200729.751497
 31
0.0
  0
LINE
  5
2D2
100
AcDbEntity
  8
2-1
  6
DASHDOT
 62
     8
100
AcDbLine
 10
91104.742743
 20
198274.391193
 30
0.0
 11
97883.751749
 21
198112.850091
 31
0.0
  0
LINE
  5
2D3
100
AcDbEntity
  8
2-1
  6
DASHDOT
 62
     8
100
AcDbLine
 10
56020.488082
 20
209957.560723
 30
0.0
 11
57320.488082
 21
206457.560723
 31
0.0
  0
LINE
  5
2D4
100
AcDbEntity
  8
2-1
  6
DASHDOT
 62
     8
100
AcDbLine
 10
52320.488082
 20
198857.560723
 30
0.0
 11
63745.01694
 21
193458.505797
 31
0.0
  0
LINE
  5
2D5
100
AcDbEntity
  8
2-1
  6
DASHDOT
 62
     8
100
AcDbLine
 10
63745.01694
 20
193458.505797
 30
0.0
 11
95848.200378
 21
186794.434539
 31
0.0
  0
LINE
  5
2D6
100
AcDbEntity
  8
2-1
  6
DASHDOT
 62
     8
100
AcDbLine
 10
103210.595188
 20
180326.425366
 30
0.0
 11
95848.200378
 21
186794.434539
 31
0.0
  0
LINE
  5
2D7
100
AcDbEntity
  8
2-1
  6
DASHDOT
 62
     8
100
AcDbLine
 10
104798.51157
 20
174183.916099
 30
0.0
 11
103210.595188
 21
180326.425366
 31
0.0
  0
LINE
  5
2D8
100
AcDbEntity
  8
2-1
  6
DASHDOT
 62
     8
100
AcDbLine
 10
105259.732071
 20
128190.2842
 30
0.0
 11
104798.51157
 21
174183.916099
 31
0.0
  0
LINE
  5
2D9
100
AcDbEntity
  8
2-1
  6
DASHDOT
 62
     8
100
AcDbLine
 10
98177.342751
 20
123089.742615
 30
0.0
 11
105259.732071
 21
128190.2842
 31
0.0
  0
LINE
  5
2DA
100
AcDbEntity
  8
2-1
  6
DASHDOT
 62
     8
100
AcDbLine
 10
95534.004264
 20
119825.885749
 30
0.0
 11
98177.342751
 21
123089.742615
 31
0.0
  0
LINE
  5
2DB
100
AcDbEntity
  8
2-1
  6
DASHDOT
 62
     8
100
AcDbLine
 10
95534.004264
 20
119825.885749
 30
0.0
 11
96341.4714
 21
55230.93241
 31
0.0
  0
LINE
  5
2DC
100
AcDbEntity
  8
2-1
  6
DASHDOT
 62
     8
100
AcDbLine
 10
103999.109699
 20
54424.349698
 30
0.0
 11
96341.4714
 21
55230.93241
 31
0.0
  0
LINE
  5
2DD
100
AcDbEntity
  8
2-1
  6
DASHDOT
 62
     8
100
AcDbLine
 10
111372.149446
 20
51319.79097
 30
0.0
 11
103999.109699
 21
54424.349698
 31
0.0
  0
LINE
  5
2DE
100
AcDbEntity
  8
2-1
  6
DASHDOT
 62
     8
100
AcDbLine
 10
111372.149446
 20
51319.79097
 30
0.0
 11
121695.76788
 21
53724.557577
 31
0.0
  0
LINE
  5
2DF
100
AcDbEntity
  8
2-1
  6
DASHDOT
 62
     8
100
AcDbLine
 10
121695.76788
 20
53724.557577
 30
0.0
 11
138721.98854
 21
42854.975706
 31
0.0
  0
LINE
  5
2E0
100
AcDbEntity
  8
2-1
  6
DASHDOT
 62
     8
100
AcDbLine
 10
138721.98854
 20
42854.975706
 30
0.0
 11
163141.36569
 21
55349.772014
 31
0.0
  0
LINE
  5
2E1
100
AcDbEntity
  8
2-1
  6
DASHDOT
 62
     8
100
AcDbLine
 10
163141.36569
 20
55349.772014
 30
0.0
 11
181035.675612
 21
47856.196606
 31
0.0
  0
LINE
  5
2E2
100
AcDbEntity
  8
2-1
  6
DASHDOT
 62
     8
100
AcDbLine
 10
209679.025462
 20
55320.679803
 30
0.0
 11
181035.675612
 21
47856.196606
 31
0.0
  0
LINE
  5
2E3
100
AcDbEntity
  8
2-1
  6
DASHDOT
 62
     8
100
AcDbLine
 10
209758.869756
 20
62695.215119
 30
0.0
 11
209679.025462
 21
55320.679803
 31
0.0
  0
LINE
  5
2E4
100
AcDbEntity
  8
2-1
  6
CONTINUOUS
 62
     9
100
AcDbLine
 10
213544.462366
 20
94615.195462
 30
0.0
 11
215016.580264
 21
94903.065038
 31
0.0
  0
LINE
  5
2E5
100
AcDbEntity
  8
2-1
  6
DASHDOT
 62
     8
100
AcDbLine
 10
215353.356303
 20
96255.796061
 30
0.0
 11
216767.773855
 21
101937.098428
 31
0.0
  0
LINE
  5
2E6
100
AcDbEntity
  8
2-1
  6
DASHDOT
 62
     8
100
AcDbLine
 10
216767.773855
 20
101937.098428
 30
0.0
 11
250309.86598
 21
125165.702689
 31
0.0
  0
LINE
  5
2E7
100
AcDbEntity
  8
2-1
  6
DASHDOT
 62
     8
100
AcDbLine
 10
205730.88055
 20
219699.743607
 30
0.0
 11
218457.678858
 21
195887.38117
 31
0.0
  0
LINE
  5
2E8
100
AcDbEntity
  8
2-1
  6
DASHDOT
 62
     8
100
AcDbLine
 10
232355.360766
 20
191751.630016
 30
0.0
 11
218457.678858
 21
195887.38117
 31
0.0
  0
LINE
  5
2E9
100
AcDbEntity
  8
2-1
  6
DASHDOT
 62
     8
100
AcDbLine
 10
232355.360766
 20
191751.630016
 30
0.0
 11
245354.671899
 21
176552.356677
 31
0.0
  0
LINE
  5
2EA
100
AcDbEntity
  8
2-1
  6
DASHDOT
 62
     8
100
AcDbLine
 10
246121.790324
 20
154565.735078
 30
0.0
 11
245354.671899
 21
176552.356677
 31
0.0
  0
LINE
  5
2EB
100
AcDbEntity
  8
2-1
  6
DASHDOT
 62
     8
100
AcDbLine
 10
244240.429546
 20
135769.731013
 30
0.0
 11
250309.86598
 21
125165.702689
 31
0.0
  0
LINE
  5
2EC
100
AcDbEntity
  8
2-1
  6
DASHDOT
 62
     8
100
AcDbLine
 10
244240.429546
 20
135769.731013
 30
0.0
 11
246121.790324
 21
154565.735078
 31
0.0
  0
LINE
  5
2ED
100
AcDbEntity
  8
2-1
  6
CONTINUOUS
 62
     1
100
AcDbLine
 10
114916.602316
 20
68548.916255
 30
0.0
 11
104932.981444
 21
172689.95564
 31
0.0
  0
LINE
  5
2EE
100
AcDbEntity
  8
2-1
  6
CONTINUOUS
 62
     1
100
AcDbLine
 10
110131.580182
 20
63411.883668
 30
0.0
 11
114916.602316
 21
68548.916255
 31
0.0
  0
LINE
  5
2EF
100
AcDbEntity
  8
2-1
  6
CONTINUOUS
 62
     1
100
AcDbLine
 10
110131.580182
 20
63411.883668
 30
0.0
 11
207398.380915
 21
60870.333886
 31
0.0
  0
LINE
  5
2F0
100
AcDbEntity
  8
2-1
  6
CONTINUOUS
 62
     1
100
AcDbLine
 10
110092.399045
 20
61912.395476
 30
0.0
 11
207386.659998
 21
59370.128167
 31
0.0
  0
LINE
  5
2F1
100
AcDbEntity
  8
2-1
  6
CONTINUOUS
 62
     1
100
AcDbLine
 10
110131.580182
 20
63411.883668
 30
0.0
 11
110092.399045
 21
61912.395476
 31
0.0
  0
LINE
  5
2F2
100
AcDbEntity
  8
2-1
  6
CONTINUOUS
 62
     1
100
AcDbLine
 10
110092.399045
 20
61912.395476
 30
0.0
 11
103999.109699
 21
54424.349698
 31
0.0
  0
LINE
  5
2F3
100
AcDbEntity
  8
2-1
  6
CONTINUOUS
 62
     1
100
AcDbLine
 10
204738.664394
 20
218953.083249
 30
0.0
 11
206398.436021
 21
60859.835777
 31
0.0
  0
LINE
  5
2F4
100
AcDbEntity
  8
2-1
  6
CONTINUOUS
 62
     1
100
AcDbLine
 10
204738.664394
 20
218953.083249
 30
0.0
 11
173444.078085
 21
218776.495779
 31
0.0
  0
LINE
  5
2F5
100
AcDbEntity
  8
2-1
  6
CONTINUOUS
 62
     1
100
AcDbLine
 10
150799.377941
 20
216955.655207
 30
0.0
 11
173444.078085
 21
218776.495779
 31
0.0
  0
LINE
  5
2F6
100
AcDbEntity
  8
2-1
  6
CONTINUOUS
 62
     1
100
AcDbLine
 10
143076.003723
 20
215432.846629
 30
0.0
 11
150799.377941
 21
216955.655207
 31
0.0
  0
LINE
  5
2F7
100
AcDbEntity
  8
2-1
  6
CONTINUOUS
 62
     1
100
AcDbLine
 10
105073.19334
 20
195610.741854
 30
0.0
 11
143076.003723
 21
215432.846629
 31
0.0
  0
LINE
  5
2F8
100
AcDbEntity
  8
2-1
  6
CONTINUOUS
 62
     1
100
AcDbLine
 10
97213.807166
 20
193929.031776
 30
0.0
 11
105073.19334
 21
195610.741854
 31
0.0
  0
LINE
  5
2F9
100
AcDbEntity
  8
2-1
  6
CONTINUOUS
 62
     1
100
AcDbLine
 10
106783.429672
 20
190863.507268
 30
0.0
 11
144749.799334
 21
210666.604717
 31
0.0
  0
LINE
  5
2FA
100
AcDbEntity
  8
2-1
  6
CONTINUOUS
 62
     1
100
AcDbLine
 10
151485.609548
 20
211994.696466
 30
0.0
 11
144749.799334
 21
210666.604717
 31
0.0
  0
LINE
  5
2FB
100
AcDbEntity
  8
2-1
  6
CONTINUOUS
 62
     1
100
AcDbLine
 10
151485.609548
 20
211994.696466
 30
0.0
 11
170968.692984
 21
213561.314198
 31
0.0
  0
LINE
  5
2FC
100
AcDbEntity
  8
2-1
  6
CONTINUOUS
 62
     1
100
AcDbLine
 10
171048.843417
 20
212564.531419
 30
0.0
 11
157927.438187
 21
211509.450678
 31
0.0
  0
LINE
  5
2FD
100
AcDbEntity
  8
2-1
  6
CONTINUOUS
 62
     1
100
AcDbLine
 10
170968.692984
 20
213561.314198
 30
0.0
 11
171048.843417
 21
212564.531419
 31
0.0
  0
LINE
  5
2FE
100
AcDbEntity
  8
2-1
  6
CONTINUOUS
 62
     1
100
AcDbLine
 10
150329.531578
 20
210258.84682
 30
0.0
 11
157927.438187
 21
211509.450678
 31
0.0
  0
LINE
  5
2FF
100
AcDbEntity
  8
2-1
  6
CONTINUOUS
 62
     1
100
AcDbLine
 10
143617.023728
 20
206504.335666
 30
0.0
 11
150329.531578
 21
210258.84682
 31
0.0
  0
LINE
  5
300
100
AcDbEntity
  8
2-1
  6
CONTINUOUS
 62
     1
100
AcDbLine
 10
113157.624957
 20
186047.962839
 30
0.0
 11
143617.023728
 21
206504.335666
 31
0.0
  0
LINE
  5
301
100
AcDbEntity
  8
2-1
  6
CONTINUOUS
 62
     1
100
AcDbLine
 10
104932.981444
 20
172689.95564
 30
0.0
 11
113157.624957
 21
186047.962839
 31
0.0
  0
LINE
  5
302
100
AcDbEntity
  8
2-1
  6
CONTINUOUS
 62
     1
100
AcDbLine
 10
47620.488082
 20
222257.560723
 30
0.0
 11
43820.488082
 21
209657.560723
 31
0.0
  0
LINE
  5
303
100
AcDbEntity
  8
2-1
  6
CONTINUOUS
 62
     1
100
AcDbLine
 10
28720.488082
 20
188257.560723
 30
0.0
 11
38620.488082
 21
200457.560723
 31
0.0
  0
LINE
  5
304
100
AcDbEntity
  8
2-1
  6
CONTINUOUS
 62
     1
100
AcDbLine
 10
38620.488082
 20
200457.560723
 30
0.0
 11
43820.488082
 21
209657.560723
 31
0.0
  0
CIRCLE
  5
305
100
AcDbEntity
  8
2-1
  6
CONTINUOUS
 62
     2
100
AcDbCircle
 10
95534.004264
 20
119825.885749
 30
0.0
 40
350.0
  0
CIRCLE
  5
306
100
AcDbEntity
  8
2-1
  6
CONTINUOUS
 62
     2
100
AcDbCircle
 10
98177.342751
 20
123089.742615
 30
0.0
 40
350.0
  0
CIRCLE
  5
307
100
AcDbEntity
  8
2-1
  6
CONTINUOUS
 62
     2
100
AcDbCircle
 10
105259.732071
 20
128190.2842
 30
0.0
 40
350.0
  0
CIRCLE
  5
308
100
AcDbEntity
  8
2-1
  6
CONTINUOUS
 62
     2
100
AcDbCircle
 10
96341.4714
 20
55230.93241
 30
0.0
 40
350.0
  0
CIRCLE
  5
309
100
AcDbEntity
  8
2-1
  6
CONTINUOUS
 62
     2
100
AcDbCircle
 10
103999.109699
 20
54424.349698
 30
0.0
 40
350.0
  0
CIRCLE
  5
30A
100
AcDbEntity
  8
2-1
  6
CONTINUOUS
 62
     2
100
AcDbCircle
 10
111372.149446
 20
51319.79097
 30
0.0
 40
350.0
  0
CIRCLE
  5
30B
100
AcDbEntity
  8
2-1
  6
CONTINUOUS
 62
     2
100
AcDbCircle
 10
121695.76788
 20
53724.557577
 30
0.0
 40
350.0
  0
CIRCLE
  5
30C
100
AcDbEntity
  8
2-1
  6
CONTINUOUS
 62
     2
100
AcDbCircle
 10
138721.98854
 20
42854.975706
 30
0.0
 40
350.0
  0
CIRCLE
  5
30D
100
AcDbEntity
  8
2-1
  6
CONTINUOUS
 62
     2
100
AcDbCircle
 10
163141.36569
 20
55349.772014
 30
0.0
 40
350.0
  0
CIRCLE
  5
30E
100
AcDbEntity
  8
2-1
  6
CONTINUOUS
 62
     2
100
AcDbCircle
 10
181035.675612
 20
47856.196606
 30
0.0
 40
350.0
  0
CIRCLE
  5
30F
100
AcDbEntity
  8
2-1
  6
CONTINUOUS
 62
     2
100
AcDbCircle
 10
209679.025462
 20
55320.679803
 30
0.0
 40
350.0
  0
CIRCLE
  5
310
100
AcDbEntity
  8
2-1
  6
CONTINUOUS
 62
     2
100
AcDbCircle
 10
209758.869756
 20
62695.215119
 30
0.0
 40
350.0
  0
CIRCLE
  5
311
100
AcDbEntity
  8
2-1
  6
CONTINUOUS
 62
     2
100
AcDbCircle
 10
216767.773855
 20
101937.098428
 30
0.0
 40
350.0
  0
CIRCLE
  5
312
100
AcDbEntity
  8
2-1
  6
CONTINUOUS
 62
     2
100
AcDbCircle
 10
250309.86598
 20
125165.702689
 30
0.0
 40
350.0
  0
CIRCLE
  5
313
100
AcDbEntity
  8
2-1
  6
CONTINUOUS
 62
     2
100
AcDbCircle
 10
244240.429546
 20
135769.731013
 30
0.0
 40
350.0
  0
CIRCLE
  5
314
100
AcDbEntity
  8
2-1
  6
CONTINUOUS
 62
     2
100
AcDbCircle
 10
246121.790324
 20
154565.735078
 30
0.0
 40
350.0
  0
CIRCLE
  5
315
100
AcDbEntity
  8
2-1
  6
CONTINUOUS
 62
     2
100
AcDbCircle
 10
245354.671899
 20
176552.356677
 30
0.0
 40
350.0
  0
CIRCLE
  5
316
100
AcDbEntity
  8
2-1
  6
CONTINUOUS
 62
     2
100
AcDbCircle
 10
232355.360766
 20
191751.630016
 30
0.0
 40
350.0
  0
CIRCLE
  5
317
100
AcDbEntity
  8
2-1
  6
CONTINUOUS
 62
     2
100
AcDbCircle
 10
218457.678858
 20
195887.38117
 30
0.0
 40
350.0
  0
CIRCLE
  5
318
100
AcDbEntity
  8
2-1
  6
CONTINUOUS
 62
     2
100
AcDbCircle
 10
205730.88055
 20
219699.743607
 30
0.0
 40
350.0
  0
CIRCLE
  5
319
100
AcDbEntity
  8
2-1
  6
CONTINUOUS
 62
     2
100
AcDbCircle
 10
182066.613994
 20
221000.700314
 30
0.0
 40
350.0
  0
CIRCLE
  5
31A
100
AcDbEntity
  8
2-1
  6
CONTINUOUS
 62
     2
100
AcDbCircle
 10
174303.421602
 20
228364.316538
 30
0.0
 40
350.0
  0
CIRCLE
  5
31B
100
AcDbEntity
  8
2-1
  6
CONTINUOUS
 62
     2
100
AcDbCircle
 10
147216.369134
 20
224234.959615
 30
0.0
 40
350.0
  0
CIRCLE
  5
31C
100
AcDbEntity
  8
2-1
  6
CONTINUOUS
 62
     2
100
AcDbCircle
 10
121466.825964
 20
214024.620418
 30
0.0
 40
350.0
  0
CIRCLE
  5
31D
100
AcDbEntity
  8
2-1
  6
CONTINUOUS
 62
     2
100
AcDbCircle
 10
104736.131136
 20
203200.886474
 30
0.0
 40
350.0
  0
CIRCLE
  5
31E
100
AcDbEntity
  8
2-1
  6
CONTINUOUS
 62
     2
100
AcDbCircle
 10
102373.303881
 20
197806.383697
 30
0.0
 40
350.0
  0
CIRCLE
  5
31F
100
AcDbEntity
  8
2-1
  6
CONTINUOUS
 62
     2
100
AcDbCircle
 10
100178.411728
 20
197956.211712
 30
0.0
 40
350.0
  0
CIRCLE
  5
320
100
AcDbEntity
  8
2-1
  6
CONTINUOUS
 62
     2
100
AcDbCircle
 10
97883.751749
 20
198112.850091
 30
0.0
 40
350.0
  0
CIRCLE
  5
321
100
AcDbEntity
  8
2-1
  6
CONTINUOUS
 62
     2
100
AcDbCircle
 10
91104.742743
 20
198274.391193
 30
0.0
 40
350.0
  0
CIRCLE
  5
322
100
AcDbEntity
  8
2-1
  6
CONTINUOUS
 62
     2
100
AcDbCircle
 10
78688.139733
 20
200729.751497
 30
0.0
 40
350.0
  0
CIRCLE
  5
323
100
AcDbEntity
  8
2-1
  6
CONTINUOUS
 62
     2
100
AcDbCircle
 10
57320.488082
 20
206457.560723
 30
0.0
 40
350.0
  0
CIRCLE
  5
324
100
AcDbEntity
  8
2-1
  6
CONTINUOUS
 62
     2
100
AcDbCircle
 10
56020.488082
 20
209957.560723
 30
0.0
 40
350.0
  0
CIRCLE
  5
325
100
AcDbEntity
  8
2-1
  6
CONTINUOUS
 62
     2
100
AcDbCircle
 10
52320.488082
 20
198857.560723
 30
0.0
 40
350.0
  0
CIRCLE
  5
326
100
AcDbEntity
  8
2-1
  6
CONTINUOUS
 62
     2
100
AcDbCircle
 10
63745.01694
 20
193458.505797
 30
0.0
 40
350.0
  0
CIRCLE
  5
327
100
AcDbEntity
  8
2-1
  6
CONTINUOUS
 62
     2
100
AcDbCircle
 10
95848.200378
 20
186794.434539
 30
0.0
 40
350.0
  0
CIRCLE
  5
328
100
AcDbEntity
  8
2-1
  6
CONTINUOUS
 62
     2
100
AcDbCircle
 10
98477.627096
 20
184484.431263
 30
0.0
 40
350.0
  0
CIRCLE
  5
329
100
AcDbEntity
  8
2-1
  6
CONTINUOUS
 62
     2
100
AcDbCircle
 10
103210.595188
 20
180326.425366
 30
0.0
 40
350.0
  0
CIRCLE
  5
32A
100
AcDbEntity
  8
2-1
  6
CONTINUOUS
 62
     2
100
AcDbCircle
 10
104798.51157
 20
174183.916099
 30
0.0
 40
350.0
  0
LINE
  5
32B
100
AcDbEntity
  8
2-1
  6
DASHDOT
 62
     8
100
AcDbLine
 10
56020.488082
 20
209957.560723
 30
0.0
 11
52320.488082
 21
198857.560723
 31
0.0
  0
TEXT
  5
32C
100
AcDbEntity
  8
2-1
  6
CONTINUOUS
 62
     1
100
AcDbText
 10
152341.450195
 20
225016.266071
 30
0.0
 40
1800.0
  1
敷地境界線
 50
8.667869
 41
0.733333
 72
     1
 11
155603.759434
 21
225513.597379
 31
0.0
100
AcDbText
  0
TEXT
  5
32D
100
AcDbEntity
  8
2-1
  6
CONTINUOUS
 62
     1
100
AcDbText
 10
236023.204111
 20
187463.052491
 30
0.0
 40
1800.0
  1
敷地境界線
 50
310.539005
 41
0.733333
 72
     1
 11
238168.090448
 21
184955.17239
 31
0.0
100
AcDbText
  0
TEXT
  5
32E
100
AcDbEntity
  8
2-1
  6
CONTINUOUS
 62
     1
100
AcDbText
 10
96056.216572
 20
78050.46458
 30
0.0
 40
1800.0
  1
敷地境界線
 50
90.716187
 41
0.733333
 72
     1
 11
96014.968251
 21
81350.206779
 31
0.0
100
AcDbText
  0
TEXT
  5
32F
100
AcDbEntity
  8
2-1
  6
CONTINUOUS
 62
     1
100
AcDbText
 10
71738.217461
 20
189960.881645
 30
0.0
 40
1800.0
  1
敷地境界線
 50
348.272926
 41
0.733333
 72
     1
 11
74969.336165
 21
189290.15672
 31
0.0
100
AcDbText
  0
TEXT
  5
330
100
AcDbEntity
  8
2-1
  6
CONTINUOUS
 62
     1
100
AcDbText
 10
65798.721968
 20
204470.160843
 30
0.0
 40
1800.0
  1
敷地境界線
 50
346.807379
 41
0.733333
 72
     1
 11
69011.62937
 21
203717.016748
 31
0.0
100
AcDbText
  0
LINE
  5
331
100
AcDbEntity
  8
2-1
  6
CONTINUOUS
 62
     1
100
AcDbLine
 10
70019.599976
 20
139554.447308
 30
0.0
 11
73022.540639
 21
153172.235769
 31
0.0
  0
LINE
  5
332
100
AcDbEntity
  8
2-1
  6
CONTINUOUS
 62
     1
100
AcDbLine
 10
73022.540639
 20
153172.235769
 30
0.0
 11
69307.540639
 21
146737.667019
 31
0.0
  0
LINE
  5
333
100
AcDbEntity
  8
2-1
  6
CONTINUOUS
 62
     1
100
AcDbLine
 10
69307.540639
 20
146737.667019
 30
0.0
 11
73532.1111
 21
145806.081508
 31
0.0
  0
TEXT
  5
334
100
AcDbEntity
  8
2-1
  6
CONTINUOUS
 62
     1
100
AcDbText
 10
72416.827217
 20
153490.322014
 30
0.0
 40
1800.0
  1
Ｎ
 50
347.564383
 41
0.733333
 72
     1
 11
73061.342695
 21
153348.196019
 31
0.0
100
AcDbText
  0
INSERT
  5
337
100
AcDbEntity
  8
0
100
AcDbBlockReference
  2
INSERT4
 10
0.0
 20
0.0
 30
0.0
  0
INSERT
  5
369
100
AcDbEntity
  8
0
100
AcDbBlockReference
  2
INSERT5
 10
0.0
 20
0.0
 30
0.0
  0
LINE
  5
36F
100
AcDbEntity
  8
2-1
  6
CONTINUOUS
 62
     1
100
AcDbLine
 10
200863.261148
 20
191273.027852
 30
0.0
 11
202303.261148
 21
188778.874689
 31
0.0
  0
LINE
  5
370
100
AcDbEntity
  8
2-1
  6
CONTINUOUS
 62
     1
100
AcDbLine
 10
202303.261148
 20
188778.874689
 30
0.0
 11
216212.531
 21
188778.874689
 31
0.0
  0
TEXT
  5
371
100
AcDbEntity
  8
2-1
  6
CONTINUOUS
 62
     1
100
AcDbText
 10
206811.323
 20
188958.874689
 30
0.0
 40
1800.0
  1
新設プロパン庫
 41
0.733333
 72
     1
 11
211431.323
 21
188958.874689
 31
0.0
100
AcDbText
  0
TEXT
  5
372
100
AcDbEntity
  8
2-1
  6
CONTINUOUS
 62
     3
100
AcDbText
 10
186665.008582
 20
205191.607601
 30
0.0
 40
1800.0
  1
申請建物
 50
3.43363
 41
0.733333
 72
     1
 11
189300.269374
 21
205349.723249
 31
0.0
100
AcDbText
  0
LINE
  5
373
100
AcDbEntity
  8
2-1
  6
CONTINUOUS
 62
     1
100
AcDbLine
 10
130860.971556
 20
198539.733288
 30
0.0
 11
136675.562698
 21
202444.782272
 31
0.0
  0
LINE
  5
374
100
AcDbEntity
  8
2-1
  6
CONTINUOUS
 62
     1
100
AcDbLine
 10
135669.974165
 20
202371.729787
 30
0.0
 11
131309.030808
 21
199442.943048
 31
0.0
  0
LINE
  5
375
100
AcDbEntity
  8
2-1
  6
CONTINUOUS
 62
     1
100
AcDbLine
 10
134664.385631
 20
202298.677301
 30
0.0
 11
131757.09006
 21
200346.152808
 31
0.0
  0
LINE
  5
376
100
AcDbEntity
  8
2-1
  6
CONTINUOUS
 62
     1
100
AcDbLine
 10
133658.797098
 20
202225.624815
 30
0.0
 11
132205.149312
 21
201249.362569
 31
0.0
  0
LINE
  5
377
100
AcDbEntity
  8
2-1
  6
CONTINUOUS
 62
     1
100
AcDbLine
 10
132653.208564
 20
202152.572329
 30
0.0
 11
132123.652554
 21
202941.077595
 31
0.0
  0
LINE
  5
378
100
AcDbEntity
  8
2-1
  6
CONTINUOUS
 62
     1
100
AcDbLine
 10
99359.920547
 20
61546.703523
 30
0.0
 11
110131.580182
 21
63411.883668
 31
0.0
  0
LINE
  5
379
100
AcDbEntity
  8
2-1
  6
CONTINUOUS
 62
     1
100
AcDbLine
 10
95654.911863
 20
57526.402584
 30
0.0
 11
99359.920547
 21
61546.703523
 31
0.0
  0
LINE
  5
37A
100
AcDbEntity
  8
2-1
  6
CONTINUOUS
 62
     1
100
AcDbLine
 10
110092.399045
 20
61912.395476
 30
0.0
 11
100103.015876
 21
60182.671387
 31
0.0
  0
LINE
  5
37B
100
AcDbEntity
  8
2-1
  6
CONTINUOUS
 62
     1
100
AcDbLine
 10
100103.015876
 20
60182.671387
 30
0.0
 11
96925.213446
 21
56734.441387
 31
0.0
  0
LINE
  5
37C
100
AcDbEntity
  8
2-1
  6
CONTINUOUS
 62
     1
100
AcDbLine
 10
96341.4714
 20
55230.93241
 30
0.0
 11
96925.213446
 21
56734.441387
 31
0.0
  0
LINE
  5
37D
100
AcDbEntity
  8
2-1
  6
CONTINUOUS
 62
     1
100
AcDbLine
 10
95654.911863
 20
57526.402584
 30
0.0
 11
94970.369045
 21
55763.267173
 31
0.0
  0
INSERT
  5
380
100
AcDbEntity
  8
0
100
AcDbBlockReference
  2
INSERT6
 10
0.0
 20
0.0
 30
0.0
  0
LINE
  5
387
100
AcDbEntity
  8
2-1
  6
CONTINUOUS
 62
     8
100
AcDbLine
 10
279138.576
 20
127631.553
 30
0.0
 11
321138.576
 21
127631.553
 31
0.0
  0
LINE
  5
388
100
AcDbEntity
  8
2-1
  6
CONTINUOUS
 62
     8
100
AcDbLine
 10
321138.576
 20
131831.553
 30
0.0
 11
321138.576
 21
127631.553
 31
0.0
  0
LINE
  5
389
100
AcDbEntity
  8
2-1
  6
CONTINUOUS
 62
     8
100
AcDbLine
 10
279138.576
 20
131831.553
 30
0.0
 11
321138.576
 21
131831.553
 31
0.0
  0
LINE
  5
38A
100
AcDbEntity
  8
2-1
  6
CONTINUOUS
 62
     8
100
AcDbLine
 10
279138.576
 20
131831.553
 30
0.0
 11
279138.576
 21
127631.553
 31
0.0
  0
TEXT
  5
38B
100
AcDbEntity
  8
2-1
  6
CONTINUOUS
 62
     8
100
AcDbText
 10
294015.136
 20
128365.407038
 30
0.0
 40
2700.0
  1
案　内　図　
 41
0.888889
100
AcDbText
  0
LINE
  5
38C
100
AcDbEntity
  8
2-1
  6
CONTINUOUS
 62
     1
100
AcDbLine
 10
149648.826448
 20
198925.783581
 30
0.0
 11
148733.086764
 21
201782.603637
 31
0.0
  0
LINE
  5
38D
100
AcDbEntity
  8
2-1
  6
CONTINUOUS
 62
     1
100
AcDbLine
 10
148733.086764
 20
201782.603637
 30
0.0
 11
143026.137052
 21
199953.268842
 31
0.0
  0
LINE
  5
38E
100
AcDbEntity
  8
2-1
  6
CONTINUOUS
 62
     1
100
AcDbLine
 10
143019.446653
 20
199951.124268
 30
0.0
 11
143935.186337
 21
197094.304212
 31
0.0
  0
LINE
  5
38F
100
AcDbEntity
  8
2-1
  6
CONTINUOUS
 62
     1
100
AcDbLine
 10
149648.826448
 20
198925.783581
 30
0.0
 11
143935.186337
 21
197094.304212
 31
0.0
  0
LINE
  5
390
100
AcDbEntity
  8
2-1
  6
CONTINUOUS
 62
     1
100
AcDbLine
 10
143935.186337
 20
197094.304212
 30
0.0
 11
148733.086764
 21
201782.603637
 31
0.0
  0
LINE
  5
391
100
AcDbEntity
  8
2-1
  6
CONTINUOUS
 62
     1
100
AcDbLine
 10
143019.446653
 20
199951.124268
 30
0.0
 11
149606.800425
 21
199056.891567
 31
0.0
  0
LINE
  5
392
100
AcDbEntity
  8
2-1
  6
CONTINUOUS
 62
     1
100
AcDbLine
 10
144958.963684
 20
198094.694866
 30
0.0
 11
146573.963684
 21
195297.432812
 31
0.0
  0
LINE
  5
393
100
AcDbEntity
  8
2-1
  6
CONTINUOUS
 62
     1
100
AcDbLine
 10
144958.963684
 20
198094.694866
 30
0.0
 11
145426.617402
 21
197824.694866
 31
0.0
  0
LINE
  5
394
100
AcDbEntity
  8
2-1
  6
CONTINUOUS
 62
     1
100
AcDbLine
 10
146573.963684
 20
195297.432812
 30
0.0
 11
153413.963684
 21
195297.432812
 31
0.0
  0
TEXT
  5
395
100
AcDbEntity
  8
2-1
  6
CONTINUOUS
 62
     1
100
AcDbText
 10
146573.963684
 20
195477.432812
 30
0.0
 40
1800.0
  1
既存浄化槽
 41
0.733333
100
AcDbText
  0
LINE
  5
396
100
AcDbEntity
  8
2-1
  6
CONTINUOUS
 62
     9
100
AcDbLine
 10
244240.429546
 20
135769.731013
 30
0.0
 11
229809.86598
 21
130965.702689
 31
0.0
  0
LINE
  5
397
100
AcDbEntity
  8
2-1
  6
CONTINUOUS
 62
     9
100
AcDbLine
 10
229809.86598
 20
130965.702689
 30
0.0
 11
225309.86598
 21
125165.702689
 31
0.0
  0
LINE
  5
398
100
AcDbEntity
  8
2-1
  6
CONTINUOUS
 62
     9
100
AcDbLine
 10
225309.86598
 20
125165.702689
 30
0.0
 11
216767.773855
 21
101937.098428
 31
0.0
  0
LINE
  5
399
100
AcDbEntity
  8
2-1
  6
CONTINUOUS
 62
     9
100
AcDbLine
 10
89204.261191
 20
194670.42211
 30
0.0
 11
97213.807166
 21
193929.031776
 31
0.0
  0
LINE
  5
39A
100
AcDbEntity
  8
2-1
  6
CONTINUOUS
 62
     9
100
AcDbLine
 10
47938.526806
 20
192896.20143
 30
0.0
 11
38038.526806
 21
180696.20143
 31
0.0
  0
LINE
  5
39B
100
AcDbEntity
  8
2-1
  6
CONTINUOUS
 62
     9
100
AcDbLine
 10
47938.526806
 20
192896.20143
 30
0.0
 11
50070.821292
 21
196197.560723
 31
0.0
  0
LINE
  5
39C
100
AcDbEntity
  8
2-1
  6
CONTINUOUS
 62
     9
100
AcDbLine
 10
52957.936755
 20
198556.312379
 30
0.0
 11
50070.821292
 21
196197.560723
 31
0.0
  0
INSERT
  5
39F
100
AcDbEntity
  8
0
100
AcDbBlockReference
  2
INSERT7
 10
0.0
 20
0.0
 30
0.0
  0
TEXT
  5
3A7
100
AcDbEntity
  8
2-1
  6
CONTINUOUS
 62
     9
100
AcDbText
 10
37582.898307
 20
194488.974247
 30
0.0
 40
1800.0
  1
道　　路
 50
320.94152
 41
0.733333
 72
     1
 11
39632.866827
 21
192825.475203
 31
0.0
100
AcDbText
  0
TEXT
  5
3A8
100
AcDbEntity
  8
2-1
  6
CONTINUOUS
 62
     9
100
AcDbText
 10
52659.963529
 20
199875.987064
 30
0.0
 40
1800.0
  1
道路境界線
 50
71.565051
 41
0.733333
 72
     1
 11
53703.515157
 21
203006.641948
 31
0.0
100
AcDbText
  0
LINE
  5
3A9
100
AcDbEntity
  8
2-1
  6
CONTINUOUS
 62
     9
100
AcDbLine
 10
82688.139733
 20
195668.434618
 30
0.0
 11
53906.847543
 21
203616.639105
 31
0.0
  0
LINE
  5
3AA
100
AcDbEntity
  8
2-1
  6
CONTINUOUS
 62
     9
100
AcDbLine
 10
89204.261191
 20
194670.42211
 30
0.0
 11
82688.139733
 21
195668.434618
 31
0.0
  0
LINE
  5
3AB
100
AcDbEntity
  8
2-1
  6
CONTINUOUS
 62
     9
100
AcDbLine
 10
52320.488082
 20
198857.560723
 30
0.0
 11
81559.180426
 21
190783.0412
 31
0.0
  0
LINE
  5
3AC
100
AcDbEntity
  8
2-1
  6
CONTINUOUS
 62
     9
100
AcDbLine
 10
88594.80766
 20
189705.460921
 30
0.0
 11
81559.180426
 21
190783.0412
 31
0.0
  0
LINE
  5
3AD
100
AcDbEntity
  8
2-1
  6
CONTINUOUS
 62
     9
100
AcDbLine
 10
88594.80766
 20
189705.460921
 30
0.0
 11
97513.305715
 21
188879.934945
 31
0.0
  0
LINE
  5
3AE
100
AcDbEntity
  8
2-1
  6
CONTINUOUS
 62
     9
100
AcDbLine
 10
106783.429672
 20
190863.507268
 30
0.0
 11
97513.305715
 21
188879.934945
 31
0.0
  0
TEXT
  5
3AF
100
AcDbEntity
  8
2-1
  6
CONTINUOUS
 62
     9
100
AcDbText
 10
105134.201869
 20
140708.352892
 30
0.0
 40
1800.0
  1
敷地境界線
 50
90.574538
 41
0.733333
 72
     1
 11
105101.111394
 21
144008.186982
 31
0.0
100
AcDbText
  0
LINE
  5
3B0
100
AcDbEntity
  8
2-1
  6
CONTINUOUS
 62
     9
100
AcDbLine
 10
110886.778403
 20
105345.265974
 30
0.0
 11
110237.862318
 21
112114.232506
 31
0.0
  0
LINE
  5
3B1
100
AcDbEntity
  8
2-1
  6
CONTINUOUS
 62
     9
100
AcDbLine
 10
110307.945765
 20
106143.672372
 30
0.0
 11
109821.258701
 21
111220.397271
 31
0.0
  0
LINE
  5
3B2
100
AcDbEntity
  8
2-1
  6
CONTINUOUS
 62
     9
100
AcDbLine
 10
109729.113127
 20
106942.078771
 30
0.0
 11
109404.655084
 21
110326.562037
 31
0.0
  0
LINE
  5
3B3
100
AcDbEntity
  8
2-1
  6
CONTINUOUS
 62
     9
100
AcDbLine
 10
109150.280489
 20
107740.485169
 30
0.0
 11
108988.051468
 21
109432.726802
 31
0.0
  0
LINE
  5
3B4
100
AcDbEntity
  8
2-1
  6
CONTINUOUS
 62
     9
100
AcDbLine
 10
108571.447851
 20
108538.891568
 30
0.0
 11
104082.701033
 21
108108.571814
 31
0.0
  0
LINE
  5
3B5
100
AcDbEntity
  8
2-1
  6
CONTINUOUS
 62
     9
100
AcDbLine
 10
113826.953438
 20
74675.743551
 30
0.0
 11
113178.037354
 21
81444.710084
 31
0.0
  0
LINE
  5
3B6
100
AcDbEntity
  8
2-1
  6
CONTINUOUS
 62
     9
100
AcDbLine
 10
113248.1208
 20
75474.14995
 30
0.0
 11
112761.433737
 21
80550.874849
 31
0.0
  0
LINE
  5
3B7
100
AcDbEntity
  8
2-1
  6
CONTINUOUS
 62
     9
100
AcDbLine
 10
112669.288162
 20
76272.556349
 30
0.0
 11
112344.83012
 21
79657.039615
 31
0.0
  0
LINE
  5
3B8
100
AcDbEntity
  8
2-1
  6
CONTINUOUS
 62
     9
100
AcDbLine
 10
112090.455525
 20
77070.962747
 30
0.0
 11
111928.226503
 21
78763.20438
 31
0.0
  0
LINE
  5
3B9
100
AcDbEntity
  8
2-1
  6
CONTINUOUS
 62
     9
100
AcDbLine
 10
111511.622887
 20
77869.369146
 30
0.0
 11
107022.876069
 21
77439.049392
 31
0.0
  0
LINE
  5
3BA
100
AcDbEntity
  8
2-1
  6
CONTINUOUS
 62
     1
100
AcDbLine
 10
116006.821378
 20
188563.763758
 30
0.0
 11
121821.412521
 21
192468.812742
 31
0.0
  0
LINE
  5
3BB
100
AcDbEntity
  8
2-1
  6
CONTINUOUS
 62
     1
100
AcDbLine
 10
120815.823987
 20
192395.760256
 30
0.0
 11
116454.88063
 21
189466.973518
 31
0.0
  0
LINE
  5
3BC
100
AcDbEntity
  8
2-1
  6
CONTINUOUS
 62
     1
100
AcDbLine
 10
119810.235454
 20
192322.707771
 30
0.0
 11
116902.939882
 21
190370.183278
 31
0.0
  0
LINE
  5
3BD
100
AcDbEntity
  8
2-1
  6
CONTINUOUS
 62
     1
100
AcDbLine
 10
118804.64692
 20
192249.655285
 30
0.0
 11
117350.999134
 21
191273.393039
 31
0.0
  0
LINE
  5
3BE
100
AcDbEntity
  8
2-1
  6
CONTINUOUS
 62
     1
100
AcDbLine
 10
117799.058387
 20
192176.602799
 30
0.0
 11
117269.502376
 21
192965.108065
 31
0.0
  0
LINE
  5
3BF
100
AcDbEntity
  8
2-1
  6
CONTINUOUS
 62
     3
100
AcDbLine
 10
118114.324
 20
157601.755
 30
0.0
 11
118114.324
 21
165501.755
 31
0.0
  0
LINE
  5
3C0
100
AcDbEntity
  8
2-1
  6
CONTINUOUS
 62
     3
100
AcDbLine
 10
118114.324
 20
165501.755
 30
0.0
 11
118114.324
 21
167601.755
 31
0.0
  0
LINE
  5
3C1
100
AcDbEntity
  8
2-1
  6
CONTINUOUS
 62
     3
100
AcDbLine
 10
118114.324
 20
157601.755
 30
0.0
 11
111114.324
 21
157601.755
 31
0.0
  0
LINE
  5
3C2
100
AcDbEntity
  8
2-1
  6
CONTINUOUS
 62
     3
100
AcDbLine
 10
111114.324
 20
157601.755
 30
0.0
 11
111114.324
 21
167601.755
 31
0.0
  0
LINE
  5
3C3
100
AcDbEntity
  8
2-1
  6
CONTINUOUS
 62
     3
100
AcDbLine
 10
111114.324
 20
167601.755
 30
0.0
 11
117164.324
 21
167601.755
 31
0.0
  0
LINE
  5
3C4
100
AcDbEntity
  8
2-1
  6
CONTINUOUS
 62
     3
100
AcDbLine
 10
117164.324
 20
167601.755
 30
0.0
 11
118114.324
 21
167601.755
 31
0.0
  0
LINE
  5
3C5
100
AcDbEntity
  8
2-1
  6
CONTINUOUS
 62
     9
100
AcDbLine
 10
119014.324
 20
159451.755
 30
0.0
 11
119014.324
 21
163651.755
 31
0.0
  0
LINE
  5
3C6
100
AcDbEntity
  8
2-1
  6
CONTINUOUS
 62
     9
100
AcDbLine
 10
119614.324
 20
165251.755
 30
0.0
 11
119614.324
 21
157801.755
 31
0.0
  0
LINE
  5
3C7
100
AcDbEntity
  8
2-1
  6
CONTINUOUS
 62
     9
100
AcDbLine
 10
118414.324
 20
168001.755
 30
0.0
 11
116914.324
 21
168001.755
 31
0.0
  0
LINE
  5
3C8
100
AcDbEntity
  8
2-1
  6
CONTINUOUS
 62
     9
100
AcDbLine
 10
118714.324
 20
168301.755
 30
0.0
 11
109698.105861
 21
168301.755
 31
0.0
  0
LINE
  5
3C9
100
AcDbEntity
  8
2-1
  6
CONTINUOUS
 62
     9
100
AcDbLine
 10
118414.324
 20
168001.755
 30
0.0
 11
118414.324
 21
165251.755
 31
0.0
  0
LINE
  5
3CA
100
AcDbEntity
  8
2-1
  6
CONTINUOUS
 62
     9
100
AcDbLine
 10
118714.324
 20
168301.755
 30
0.0
 11
118714.324
 21
165251.755
 31
0.0
  0
LINE
  5
3CB
100
AcDbEntity
  8
2-1
  6
CONTINUOUS
 62
     3
100
AcDbLine
 10
118114.324
 20
165501.755
 30
0.0
 11
117164.324
 21
165501.755
 31
0.0
  0
LINE
  5
3CC
100
AcDbEntity
  8
2-1
  6
CONTINUOUS
 62
     3
100
AcDbLine
 10
117164.324
 20
167601.755
 30
0.0
 11
117164.324
 21
165501.755
 31
0.0
  0
LINE
  5
3CD
100
AcDbEntity
  8
2-1
  6
CONTINUOUS
 62
     9
100
AcDbLine
 10
116914.324
 20
168301.755
 30
0.0
 11
116914.324
 21
167601.755
 31
0.0
  0
LINE
  5
3CE
100
AcDbEntity
  8
2-1
  6
CONTINUOUS
 62
     9
100
AcDbLine
 10
119014.324
 20
163651.755
 30
0.0
 11
118114.324
 21
163651.755
 31
0.0
  0
LINE
  5
3CF
100
AcDbEntity
  8
2-1
  6
CONTINUOUS
 62
     9
100
AcDbLine
 10
118114.324
 20
159451.755
 30
0.0
 11
119014.324
 21
159451.755
 31
0.0
  0
LINE
  5
3D0
100
AcDbEntity
  8
2-1
  6
CONTINUOUS
 62
     9
100
AcDbLine
 10
118114.324
 20
163801.755
 30
0.0
 11
118864.324
 21
163801.755
 31
0.0
  0
LINE
  5
3D1
100
AcDbEntity
  8
2-1
  6
CONTINUOUS
 62
     9
100
AcDbLine
 10
118864.324
 20
165101.755
 30
0.0
 11
118114.324
 21
165101.755
 31
0.0
  0
LINE
  5
3D2
100
AcDbEntity
  8
2-1
  6
CONTINUOUS
 62
     9
100
AcDbLine
 10
118114.324
 20
165251.755
 30
0.0
 11
119614.324
 21
165251.755
 31
0.0
  0
LINE
  5
3D3
100
AcDbEntity
  8
2-1
  6
CONTINUOUS
 62
     9
100
AcDbLine
 10
119014.324
 20
163651.755
 30
0.0
 11
119014.324
 21
165251.755
 31
0.0
  0
LINE
  5
3D4
100
AcDbEntity
  8
2-1
  6
CONTINUOUS
 62
     9
100
AcDbLine
 10
118864.324
 20
165101.755
 30
0.0
 11
118864.324
 21
163801.755
 31
0.0
  0
LINE
  5
3D5
100
AcDbEntity
  8
2-1
  6
CONTINUOUS
 62
     9
100
AcDbLine
 10
118214.324
 20
165101.755
 30
0.0
 11
118214.324
 21
163801.755
 31
0.0
  0
LINE
  5
3D6
100
AcDbEntity
  8
2-1
  6
CONTINUOUS
 62
     9
100
AcDbLine
 10
122514.324
 20
157801.755
 30
0.0
 11
119614.324
 21
157801.755
 31
0.0
  0
LINE
  5
3D7
100
AcDbEntity
  8
2-1
  6
CONTINUOUS
 62
     9
100
AcDbLine
 10
109103.90281
 20
166084.159026
 30
0.0
 11
110014.324
 21
155801.755
 31
0.0
  0
LINE
  5
3D8
100
AcDbEntity
  8
2-1
  6
CONTINUOUS
 62
     9
100
AcDbLine
 10
110032.032333
 20
155601.755
 30
0.0
 11
113396.615667
 21
117601.755
 31
0.0
  0
LINE
  5
3D9
100
AcDbEntity
  8
2-1
  6
CONTINUOUS
 62
     9
100
AcDbLine
 10
113414.324
 20
117401.755
 30
0.0
 11
113882.466954
 21
112114.493407
 31
0.0
  0
LINE
  5
3DA
100
AcDbEntity
  8
2-1
  6
CONTINUOUS
 62
     9
100
AcDbLine
 10
113683.246337
 20
112096.854082
 30
0.0
 11
108920.340931
 21
165889.668072
 31
0.0
  0
LINE
  5
3DB
100
AcDbEntity
  8
2-1
  6
CONTINUOUS
 62
     9
100
AcDbLine
 10
108901.562401
 20
166101.755
 30
0.0
 11
107462.33292
 21
166487.395377
 31
0.0
  0
LINE
  5
3DC
100
AcDbEntity
  8
2-1
  6
CONTINUOUS
 62
     9
100
AcDbLine
 10
107410.569111
 20
166294.210212
 30
0.0
 11
108920.340931
 21
165889.668072
 31
0.0
  0
LINE
  5
3DD
100
AcDbEntity
  8
2-1
  6
CONTINUOUS
 62
     9
100
AcDbLine
 10
108901.562401
 20
166101.755
 30
0.0
 11
109815.19363
 21
169511.473167
 31
0.0
  0
LINE
  5
3DE
100
AcDbEntity
  8
2-1
  6
CONTINUOUS
 62
     9
100
AcDbLine
 10
109103.90281
 20
166084.159026
 30
0.0
 11
110008.378796
 21
169459.709358
 31
0.0
  0
TEXT
  5
3DF
100
AcDbEntity
  8
2-1
  6
CONTINUOUS
 62
     3
100
AcDbText
 10
111940.618
 20
162335.625
 30
0.0
 40
1800.0
  1
既存建物
 41
0.733333
 72
     1
 11
114580.618
 21
162335.625
 31
0.0
100
AcDbText
  0
LINE
  5
3E0
100
AcDbEntity
  8
2-1
  6
CONTINUOUS
 62
     9
100
AcDbLine
 10
207398.380915
 20
60870.333886
 30
0.0
 11
221673.95656
 21
61020.208696
 31
0.0
  0
LINE
  5
3E1
100
AcDbEntity
  8
2-1
  6
DASHDOT
 62
     8
100
AcDbLine
 10
215353.356303
 20
96255.796061
 30
0.0
 11
256325.080904
 21
96685.9454
 31
0.0
  0
LINE
  5
3E2
100
AcDbEntity
  8
2-1
  6
DASHDOT
 62
     8
100
AcDbLine
 10
256325.080904
 20
96685.9454
 30
0.0
 11
256560.22559
 21
74288.414111
 31
0.0
  0
LINE
  5
3E3
100
AcDbEntity
  8
2-1
  6
DASHDOT
 62
     8
100
AcDbLine
 10
221378.712825
 20
62817.208222
 30
0.0
 11
209758.869756
 21
62695.215119
 31
0.0
  0
LINE
  5
3E4
100
AcDbEntity
  8
2-1
  6
DASHDOT
 62
     8
100
AcDbLine
 10
221378.712825
 20
62817.208222
 30
0.0
 11
256560.22559
 21
74288.414111
 31
0.0
  0
CIRCLE
  5
3E5
100
AcDbEntity
  8
2-1
  6
CONTINUOUS
 62
     2
100
AcDbCircle
 10
221378.712825
 20
62817.208222
 30
0.0
 40
350.0
  0
CIRCLE
  5
3E6
100
AcDbEntity
  8
2-1
  6
CONTINUOUS
 62
     2
100
AcDbCircle
 10
256560.22559
 20
74288.414111
 30
0.0
 40
350.0
  0
CIRCLE
  5
3E7
100
AcDbEntity
  8
2-1
  6
CONTINUOUS
 62
     2
100
AcDbCircle
 10
256325.080904
 20
96685.9454
 30
0.0
 40
350.0
  0
CIRCLE
  5
3E8
100
AcDbEntity
  8
2-1
  6
CONTINUOUS
 62
     2
100
AcDbCircle
 10
215353.356303
 20
96255.796061
 30
0.0
 40
350.0
  0
LINE
  5
3E9
100
AcDbEntity
  8
2-1
  6
CONTINUOUS
 62
     9
100
AcDbLine
 10
215016.580264
 20
94903.065038
 30
0.0
 11
215353.356303
 21
96255.796061
 31
0.0
  0
LINE
  5
3EA
100
AcDbEntity
  8
2-1
  6
CONTINUOUS
 62
     9
100
AcDbLine
 10
207386.659998
 20
59370.128167
 30
0.0
 11
221919.993006
 21
59522.709091
 31
0.0
  0
LINE
  5
3EB
100
AcDbEntity
  8
2-1
  6
CONTINUOUS
 62
     9
100
AcDbLine
 10
221673.95656
 20
61020.208696
 30
0.0
 11
261479.07141
 21
73998.976009
 31
0.0
  0
LINE
  5
3EC
100
AcDbEntity
  8
2-1
  6
CONTINUOUS
 62
     9
100
AcDbLine
 10
221919.993006
 20
59522.709091
 30
0.0
 11
261944.064698
 21
72572.868985
 31
0.0
  0
LINE
  5
3ED
100
AcDbEntity
  8
2-1
  6
CONTINUOUS
 62
     3
100
AcDbLine
 10
208848.797869
 20
65600.992735
 30
0.0
 11
208809.42996
 21
69350.786085
 31
0.0
  0
LINE
  5
3EE
100
AcDbEntity
  8
2-1
  6
CONTINUOUS
 62
     3
100
AcDbLine
 10
225847.861056
 20
65779.46059
 30
0.0
 11
225808.493147
 21
69529.25394
 31
0.0
  0
LINE
  5
3EF
100
AcDbEntity
  8
2-1
  6
CONTINUOUS
 62
     3
100
AcDbLine
 10
225847.861056
 20
65779.46059
 30
0.0
 11
208848.797869
 21
65600.992735
 31
0.0
  0
LINE
  5
3F0
100
AcDbEntity
  8
2-1
  6
CONTINUOUS
 62
     3
100
AcDbLine
 10
208809.42996
 20
69350.786085
 30
0.0
 11
225808.493147
 21
69529.25394
 31
0.0
  0
TEXT
  5
3F1
100
AcDbEntity
  8
2-1
  6
CONTINUOUS
 62
     3
100
AcDbText
 10
212316.548
 20
66740.111
 30
0.0
 40
1800.0
  1
既存建物
 41
0.733333
 72
     1
 11
214956.548
 21
66740.111
 31
0.0
100
AcDbText
  0
LINE
  5
3F2
100
AcDbEntity
  8
2-1
  6
CONTINUOUS
 62
     3
100
AcDbLine
 10
210788.323529
 20
71371.67209
 30
0.0
 11
224787.552035
 21
71518.645618
 31
0.0
  0
LINE
  5
3F3
100
AcDbEntity
  8
2-1
  6
CONTINUOUS
 62
     3
100
AcDbLine
 10
209772.631472
 20
72861.091321
 30
0.0
 11
240770.923165
 21
73186.532704
 31
0.0
  0
LINE
  5
3F4
100
AcDbEntity
  8
2-1
  6
CONTINUOUS
 62
     9
100
AcDbLine
 10
225808.493147
 20
69529.25394
 30
0.0
 11
225771.749765
 21
73029.061067
 31
0.0
  0
LINE
  5
3F5
100
AcDbEntity
  8
2-1
  6
CONTINUOUS
 62
     3
100
AcDbLine
 10
209772.631472
 20
72861.091321
 30
0.0
 11
209594.058636
 21
89870.153957
 31
0.0
  0
LINE
  5
3F6
100
AcDbEntity
  8
2-1
  6
CONTINUOUS
 62
     9
100
AcDbLine
 10
208798.931851
 20
70350.730979
 30
0.0
 11
207299.014511
 21
70334.983815
 31
0.0
  0
LINE
  5
3F7
100
AcDbEntity
  8
2-1
  6
CONTINUOUS
 62
     9
100
AcDbLine
 10
208809.42996
 20
69350.786085
 30
0.0
 11
208798.931851
 21
70350.730979
 31
0.0
  0
LINE
  5
3F8
100
AcDbEntity
  8
2-1
  6
CONTINUOUS
 62
     3
100
AcDbLine
 10
224771.804872
 20
73018.562958
 30
0.0
 11
224787.552035
 21
71518.645618
 31
0.0
  0
LINE
  5
3F9
100
AcDbEntity
  8
2-1
  6
CONTINUOUS
 62
     3
100
AcDbLine
 10
210788.323529
 20
71371.67209
 30
0.0
 11
210772.576365
 21
72871.58943
 31
0.0
  0
LINE
  5
3FA
100
AcDbEntity
  8
2-1
  6
CONTINUOUS
 62
     3
100
AcDbLine
 10
250259.297901
 20
75296.258957
 30
0.0
 11
250101.826265
 21
90295.432357
 31
0.0
  0
LINE
  5
3FB
100
AcDbEntity
  8
2-1
  6
CONTINUOUS
 62
     3
100
AcDbLine
 10
250101.826265
 20
90295.432357
 30
0.0
 11
209594.058636
 21
89870.153957
 31
0.0
  0
LINE
  5
3FC
100
AcDbEntity
  8
2-1
  6
CONTINUOUS
 62
     3
100
AcDbLine
 10
211746.275986
 20
75381.949773
 30
0.0
 11
211609.695586
 21
88391.232835
 31
0.0
  0
LINE
  5
3FD
100
AcDbEntity
  8
2-1
  6
CONTINUOUS
 62
     3
100
AcDbLine
 10
240608.097493
 20
88695.677999
 30
0.0
 11
248117.683642
 21
88774.518799
 31
0.0
  0
LINE
  5
3FE
100
AcDbEntity
  8
2-1
  6
CONTINUOUS
 62
     3
100
AcDbLine
 10
211746.275986
 20
75381.949773
 30
0.0
 11
236744.898319
 21
75644.4025
 31
0.0
  0
LINE
  5
3FF
100
AcDbEntity
  8
2-1
  6
CONTINUOUS
 62
     3
100
AcDbLine
 10
236744.898319
 20
75644.4025
 30
0.0
 11
236608.317919
 21
88653.685563
 31
0.0
  0
LINE
  5
400
100
AcDbEntity
  8
2-1
  6
CONTINUOUS
 62
     3
100
AcDbLine
 10
240713.078584
 20
78696.229066
 30
0.0
 11
240608.097493
 21
88695.677999
 31
0.0
  0
LINE
  5
401
100
AcDbEntity
  8
2-1
  6
CONTINUOUS
 62
     3
100
AcDbLine
 10
248117.683642
 20
88774.518799
 30
0.0
 11
248222.664733
 21
78775.069865
 31
0.0
  0
LINE
  5
402
100
AcDbEntity
  8
2-1
  6
CONTINUOUS
 62
     3
100
AcDbLine
 10
248222.664733
 20
78775.069865
 30
0.0
 11
240713.078584
 21
78696.229066
 31
0.0
  0
LINE
  5
403
100
AcDbEntity
  8
2-1
  6
CONTINUOUS
 62
     3
100
AcDbLine
 10
236608.317919
 20
88653.685563
 30
0.0
 11
211609.695586
 21
88391.232835
 31
0.0
  0
LINE
  5
404
100
AcDbEntity
  8
2-1
  6
CONTINUOUS
 62
     9
100
AcDbLine
 10
213075.544461
 20
92731.689142
 30
0.0
 11
252862.017159
 21
93149.394892
 31
0.0
  0
LINE
  5
405
100
AcDbEntity
  8
2-1
  6
CONTINUOUS
 62
     9
100
AcDbLine
 10
252862.017159
 20
93149.394892
 30
0.0
 11
253071.973616
 21
73151.042422
 31
0.0
  0
LINE
  5
406
100
AcDbEntity
  8
2-1
  6
CONTINUOUS
 62
     9
100
AcDbLine
 10
213075.544461
 20
92731.689142
 30
0.0
 11
213544.462366
 21
94615.195462
 31
0.0
  0
LINE
  5
407
100
AcDbEntity
  8
2-1
  6
CONTINUOUS
 62
     9
100
AcDbLine
 10
250596.484131
 20
90806.895177
 30
0.0
 11
252862.017159
 21
93149.394892
 31
0.0
  0
LINE
  5
408
100
AcDbEntity
  8
2-1
  6
CONTINUOUS
 62
     3
100
AcDbLine
 10
250259.297901
 20
75296.258957
 30
0.0
 11
240749.821966
 21
75196.421939
 31
0.0
  0
LINE
  5
409
100
AcDbEntity
  8
2-1
  6
CONTINUOUS
 62
     3
100
AcDbLine
 10
240770.923165
 20
73186.532704
 30
0.0
 11
240749.821966
 21
75196.421939
 31
0.0
  0
LINE
  5
40A
100
AcDbEntity
  8
2-1
  6
CONTINUOUS
 62
     9
100
AcDbLine
 10
207088.947348
 20
90343.88113
 30
0.0
 11
250596.549657
 21
90800.653858
 31
0.0
  0
LINE
  5
40B
100
AcDbEntity
  8
2-1
  6
CONTINUOUS
 62
     9
100
AcDbLine
 10
250596.484131
 20
90806.895177
 30
0.0
 11
250767.881343
 21
74481.310716
 31
0.0
  0
LINE
  5
40C
100
AcDbEntity
  8
2-1
  6
CONTINUOUS
 62
     9
100
AcDbLine
 10
207088.947348
 20
90343.88113
 30
0.0
 11
213075.544461
 21
92731.689142
 31
0.0
  0
LINE
  5
40D
100
AcDbEntity
  8
2-1
  6
CONTINUOUS
 62
     9
100
AcDbLine
 10
253071.973616
 20
73151.042422
 30
0.0
 11
250767.881343
 21
74481.310716
 31
0.0
  0
LINE
  5
40E
100
AcDbEntity
  8
2-1
  6
CONTINUOUS
 62
     9
100
AcDbLine
 10
250767.881343
 20
74481.310716
 30
0.0
 11
248483.542744
 21
72977.489106
 31
0.0
  0
LINE
  5
40F
100
AcDbEntity
  8
2-1
  6
CONTINUOUS
 62
     9
100
AcDbLine
 10
248483.542744
 20
72977.489106
 30
0.0
 11
221378.712825
 21
62817.208222
 31
0.0
  0
TEXT
  5
410
100
AcDbEntity
  8
2-1
  6
CONTINUOUS
 62
     3
100
AcDbText
 10
222991.505502
 20
80965.937906
 30
0.0
 40
1800.0
  1
既存プール
 50
0.601508
 41
0.733333
 72
     1
 11
226291.32365
 21
81000.581666
 31
0.0
100
AcDbText
  0
TEXT
  5
411
100
AcDbEntity
  8
2-1
  6
CONTINUOUS
 62
     9
100
AcDbText
 10
235948.098226
 20
61163.877178
 30
0.0
 40
1800.0
  1
水路
 50
18.058961
 41
0.733333
 72
     1
 11
237203.072407
 21
61573.071271
 31
0.0
100
AcDbText
  0
LINE
  5
412
100
AcDbEntity
  8
2-1
  6
CONTINUOUS
 62
     9
100
AcDbLine
 10
235934.389704
 20
65109.588976
 30
0.0
 11
236561.700125
 21
63185.664867
 31
0.0
  0
LINE
  5
413
100
AcDbEntity
  8
2-1
  6
CONTINUOUS
 62
     9
100
AcDbLine
 10
235934.389704
 20
65109.588976
 30
0.0
 11
236445.344692
 21
64814.588976
 31
0.0
  0
LINE
  5
414
100
AcDbEntity
  8
2-1
  6
CONTINUOUS
 62
     9
100
AcDbLine
 10
125936.637443
 20
63399.039205
 30
0.0
 11
131934.590212
 21
63242.314655
 31
0.0
  0
LINE
  5
415
100
AcDbEntity
  8
2-1
  6
CONTINUOUS
 62
     9
100
AcDbLine
 10
126001.939339
 20
65898.186192
 30
0.0
 11
131999.892108
 21
65741.461642
 31
0.0
  0
LINE
  5
416
100
AcDbEntity
  8
2-1
  6
CONTINUOUS
 62
     9
100
AcDbLine
 10
131934.590212
 20
63242.314655
 30
0.0
 11
131999.892108
 21
65741.461642
 31
0.0
  0
LINE
  5
417
100
AcDbEntity
  8
2-1
  6
CONTINUOUS
 62
     9
100
AcDbLine
 10
126001.939339
 20
65898.186192
 30
0.0
 11
125936.637443
 21
63399.039205
 31
0.0
  0
LINE
  5
418
100
AcDbEntity
  8
2-1
  6
CONTINUOUS
 62
     1
100
AcDbLine
 10
125936.637443
 20
63399.039205
 30
0.0
 11
131999.892108
 21
65741.461642
 31
0.0
  0
LINE
  5
419
100
AcDbEntity
  8
2-1
  6
CONTINUOUS
 62
     1
100
AcDbLine
 10
131934.590212
 20
63242.314655
 30
0.0
 11
126001.939339
 21
65898.186192
 31
0.0
  0
LINE
  5
41A
100
AcDbEntity
  8
2-1
  6
CONTINUOUS
 62
     9
100
AcDbLine
 10
132578.049627
 20
69112.462194
 30
0.0
 11
144938.049627
 21
69112.462194
 31
0.0
  0
TEXT
  5
41B
100
AcDbEntity
  8
2-1
  6
CONTINUOUS
 62
     9
100
AcDbText
 10
132578.049627
 20
69292.462194
 30
0.0
 40
1800.0
  1
既存受装水槽１２ｔ
 41
0.733333
100
AcDbText
  0
LINE
  5
41C
100
AcDbEntity
  8
2-1
  6
CONTINUOUS
 62
     9
100
AcDbLine
 10
130239.0485
 20
65061.193403
 30
0.0
 11
132578.049627
 21
69112.462194
 31
0.0
  0
LINE
  5
41D
100
AcDbEntity
  8
2-1
  6
CONTINUOUS
 62
     9
100
AcDbLine
 10
130239.0485
 20
65061.193403
 30
0.0
 11
130239.0485
 21
65561.193403
 31
0.0
  0
TEXT
  5
41E
100
AcDbEntity
  8
2-1
  6
CONTINUOUS
 62
     9
100
AcDbText
 10
231850.647949
 20
110192.818208
 30
0.0
 40
1800.0
  1
敷地境界線
 50
34.703416
 41
0.733333
 72
     1
 11
234563.611282
 21
112071.602377
 31
0.0
100
AcDbText
  0
TEXT
  5
41F
100
AcDbEntity
  8
2-1
  6
CONTINUOUS
 62
     9
100
AcDbText
 10
230758.430583
 20
96417.529124
 30
0.0
 40
1800.0
  1
敷地境界線
 50
0.601508
 41
0.733333
 72
     1
 11
234058.248731
 21
96452.172884
 31
0.0
100
AcDbText
  0
TEXT
  5
420
100
AcDbEntity
  8
2-1
  6
CONTINUOUS
 62
     9
100
AcDbText
 10
258268.521391
 20
83032.687622
 30
0.0
 40
1800.0
  1
敷地境界線
 50
90.601508
 41
0.733333
 72
     1
 11
258233.877631
 21
86332.50577
 31
0.0
100
AcDbText
  0
TEXT
  5
421
100
AcDbEntity
  8
2-1
  6
CONTINUOUS
 62
     9
100
AcDbText
 10
237079.230767
 20
66043.218178
 30
0.0
 40
1800.0
  1
敷地境界線
 50
18.058961
 41
0.733333
 72
     1
 11
240216.666219
 21
67066.203411
 31
0.0
100
AcDbText
  0
TEXT
  5
422
100
AcDbEntity
  8
2-1
  6
CONTINUOUS
 62
     9
100
AcDbText
 10
197731.948309
 20
50347.142929
 30
0.0
 40
1800.0
  1
敷地境界線
 50
14.606461
 41
0.733333
 72
     1
 11
200925.294745
 21
51179.331934
 31
0.0
100
AcDbText
  0
TEXT
  5
423
100
AcDbEntity
  8
2-1
  6
CONTINUOUS
 62
     9
100
AcDbText
 10
126918.608483
 20
48254.753362
 30
0.0
 40
1800.0
  1
敷地境界線
 50
327.445737
 41
0.733333
 72
     1
 11
129700.119778
 21
46479.029591
 31
0.0
100
AcDbText
  0
LINE
  5
424
100
AcDbEntity
  8
2-1
  6
CONTINUOUS
 62
     3
100
AcDbLine
 10
56006.781157
 20
209916.439948
 30
0.0
 11
59424.686744
 21
221249.495315
 31
0.0
  0
ENDSEC
  0
SECTION
  2
OBJECTS
  0
DICTIONARY
  5
19
100
AcDbDictionary
  3
ACAD_GROUP
350
1A
  3
ACAD_MLINESTYLE
350
1B
  0
DICTIONARY
  5
1A
102
{ACAD_REACTORS
330
19
102
}
100
AcDbDictionary
  0
DICTIONARY
  5
1B
102
{ACAD_REACTORS
330
19
102
}
100
AcDbDictionary
  3
STANDARD
350
1C
  0
MLINESTYLE
  5
1C
102
{ACAD_REACTORS
330
1B
102
}
100
AcDbMlineStyle
  2
STANDARD
 70
     0
  3

 62
     0
 51
90.0
 52
90.0
 71
     2
 49
0.5
 62
   256
  6
BYLAYER
 49
-0.5
 62
   256
  6
BYLAYER
  0
ENDSEC
  0
EOF
